Oops, an error
Loading. Please wait.

Breaking The Law Tab

version 1
version 1

Whole song

Interactive

5,817 views 1 this week
3 commentsread comments
1 2 3 4 5
accurate
x 5
add to favorites
launch autoscroll
font size
0
reset
how to read this tab
guitar tuner
Autoscroll
slow
fast
+/-
esc
set tempo
stop
Help us to improve Ultimate-Guitar.com Take our survey!
×
Author
Difficulty
Tuning
novice
C# G# C# F# A# D#
-------------------------------------------------------------------------------
                    Breaking The law (Judas Priest cover)- Fightstar
-------------------------------------------------------------------------------
Tabbed by: Chris
Email: christopherbhardy@hotmail.com

UPDATE: 2/11/08
Been told by a lot of people this tab is infact in drop C# not drop C so I've edited

This is a tab for the Fightstar cover of Breaking the law featured on the Kerrang!
Voltage album
I made this tab by listening to the song and watching various videos on youtube, after 
for a tab for ages I realised I had no choice but to make one myself
This is Almost 100% correct, if you notice anything I can change let me know.

Listen to the song for the timing and correct sturmming patterns in certain parts of the song.

Tuning:
D#|-----------------------------------------------------------------------|
A#|-----------------------------------------------------------------------|
F#|-----------------------------------------------------------------------|
C#|-----------------------------------------------------------------------|
G#|--------------------[REST-FOR-DRUM-INTRO]------------------------------|
C#|-----------------------------------------------------------------------|

Intro
Muted Tremolo Picking
D#|-----------------------------------------------------------------------|
A#|-----------------------------------------------------------------------|
F#|-----------------------------------------------------------------------|
C#|-----------------------------------------------------------------------|
G#|-----------------------------------------------------------------------|
C#|----7---9---10---7---9---10---3---5---7---3---5---7---7---10---9----------|
      .   .   .   .   .   .   .   .   .   .   .   .   .   .   .

Heavy Part of Intro
D#|-------------------------------------------------------------------------|
A#|-------------------------------------------------------------------------|
F#|-------------------------------------------------------------------------|
C#|----7---9---10---7---9---10---3---5---7---3---5---7----------------------|
G#|----7---9---10---7---9---10---3---5---7---3---5---7----------------------|
C#|----7---9---10---7---9---10---3---5---7---3---5---7---7---10---9---------|
                                                        .    .   .
                                                         PM
verse
D#|------------------------------------------------------------------------|
A#|------------------------------------------------------------------------|
F#|-------------------------------------7h9--------------------------------|
C#|------9p7-9p7-----9----10-----7--------------7h9-----9p7-9p7---7--------|
G#|---------------------------10-------------------------------------------|x2
C#|--77-----------77---77---7--------77------55------77---------7----------|

Prechorus                           
D#|----------------------------------------------------------------------------------|
A#|----------------------------------------------------------------------------------|
F#|----5~----------------------------------------------------------------------------|
C#|3~--5~--3~--2~---7777-7~-888-888--7777-7~-888-888--7777-7~-888-888--7777-7~--2~-1~|
G#|3~--3~--3~--2~---7777-7~-888-888--7777-7~-888-888--7777-7~-888-888--7777-7~--2~-1~|
C#|3~------3~--2~---7777-7~-888-888--7777-7~-888-888--7777-7~-888-888--7777-7~--2~-1~|

Chorus
D#|--------------------------------------------------------|
A#|--------------------------------------------------------|
F#|--------------------------------------------------------|
C#|-0-0-0-0-1-1-1-1--1-1-1--1--0-0-0-0--1-1-1-1--1-1-1-1---|
G#|-0-0-0-0-1-1-1-1--1-1-1--1--0-0-0-0--1-1-1-1--1-1-1-1---|
C#|-0-0-0-0-1-1-1-1--1-1-1--1--0-0-0-0--1-1-1-1--1-1-1-1---|

After This repeat Verse then pre chorus and chorus

THEN

Bridge (1:44)

Listen to the song for the timing and correct sturmming patterns

D#|-------------------------------------------------------------------|
A#|-------------------------------------------------------------------|
F#|-------------------------------------------------------------------|
C#|-------------------------------------------------------------------|
G#|-------------------[REST-WHILE-DRUMS-PLAY]-------------------------|
C#|-------------------------------------------------------------------|

D#|------------------------------------------------------------------|
A#|------------------------------------------------------------------|
F#|------------------------------------------------------------------|
C#|-1----0----0-0-0-0-1-0-0-0-0-0-0-1-1--0-0-0-0-1-0-0-0-0-0-0-1-1---|
G#|-1----0----0-0-0-0-1-0-0-0-0-0-0-1-1--0-0-0-0-1-0-0-0-0-0-0-1-1---|
C#|-1----0----0-0-0-0-1-0-0-0-0-0-0-1-1--0-0-0-0-1-0-0-0-0-0-0-1-1---|

After the bridge play the outro which is the same as the Intro.

 | /  slide up
 | \  slide down
 | h  hammer-on
 | p  pull-off
 | ~  vibrato
 | +  harmonic
 | x  Mute note

===============================================================================
Suggest correction
comments
print report bad tab
3 comments total. show 1 bad comment
-2 reply
fl3im 10 wrote on April 3 2008, 02:06 pm

booring

+1 reply
ljhrocks 70 wrote on March 19 2009, 05:23 am

why have people put boring as comments? that just pathetic if you don't like the song don't look at the tab as far as i can see it is a good, accurate tab all lordbyron91 has done is tabbed the song so don't give him aggro just because you find it boring.
Awsome tab btw 5*

guest
You may want to rate the tab now too:
select rating
Please do not post tabs as comments. Select "correction" instead!