Oops, an error
Loading. Please wait.

Breaking The Law Bass Tab

version 2
version 2

Whole song

Interactive

805 views 1 this week
no commentswrite comment
1 2 3 4 5
please rate
add to favorites
launch autoscroll
font size
0
reset
guitar tuner
Tab Pro tools
  • play this tab
  • loop segment
  • change instrument
  • show fretboard
  • metronome
×
Best way to learn
"Breaking The Law"
Autoscroll
slow
fast
+/-
esc
set tempo
stop
Difficulty
intermediate
If you don’t have a five string bass then you can just octave the whole thing and
if works fine that way too.

 G|-----------------------------------------------------------------------|
 D|-----------------------------------------------------------------------|
 A|-----------------------------------------------------------------------|
 E|-------------------- [REST-FOR-DRUM-INTRO] ----------------------------|
 B|-----------------------------------------------------------------------|

INTRO (0:05)
|------------------------|-------------------|
|------------------------|-------------------|
|------------------------|-------------------|
|------------------------|-0—2-4-0-2-4-0-6-5-|
|-9-11-12-9-11-12-9-11-12|-------------------|

VERSE (0:21)
|-----------------|-----------------|-----------------|-----------------|
|-----------------|-----------------|-----------------|-----------------|
|-----------------|-----------------|-----------------|-----------------|
|-4-4—4-4-4-4-4-4-|-0-0-0-0-0-0-0-0-|-4-4-4-4-4-4-4-4-|-0-0-0-0-0-0-0-0-|
|-----------------|-----------------|-----------------|-----------------|

PRE-CHORUS (0:31)
|-----------------|-----------------|-----------------|-----------------|
|-----------------|-----------------|-----------------|-----------------|
|-----------------|-----------------|-----------------|-----------------|
|-----------------|-----------------|-4-4-4-4-4-4-4-4-|-4-4-4-4-4-4-4-4-|
|-5-5-5-5-5-5-5-5-|-5-5-5-5-5-5-5-5-|-----------------|-----------------|

|-----------------|-----------------|-----------------|-----------------|
|-----------------|-----------------|-----------------|-----------------|
|-----------------|-----------------|-----------------|-----------------|
|-----------------|-----------------|-----------------|-----------------|
|-5-5-5-5-5-5-5-5-|-5-5-5-5-5-5-5-5-|-4-4-4-4-4-4-4-4-|-4---------------|

PRE-CHORUS 2 (0:42)
|-----------------------|-----------------------|
|-----------------------|-----------------------|
|-----------------------|-----------------------|
|-----------------------|-----------------------|
|-8-8-8-8—-9-9-9--9-9-9-|-8-8-8-8—-9-9-9—-9-9-9-|

|-----------------------|-----------------------|
|-----------------------|-----------------------|
|-----------------------|-----------------------|
|-----------------------|-----------------------|
|-8-8-8-8—-9-9-9—-9-9-9-|-8-8-8-8--4------3-----|

CHORUS (0:52)
|--------------------------|--------------------------|
|--------------------------|--------------------------|
|--------------------------|--------------------------|
|--------------------------|--------------------------|
|-3-3-3-3-4-4-4-4—-4-4-4-4-|-3-3-3-3-4-4-4-4—-4-4-4-4-|

|--------------------------|--------------------------|
|--------------------------|--------------------------|
|--------------------------|--------------------------|
|--------------------------|--------------------------|
|-3-3-3-3-4-4-4-4—-4-4-4-4-|-3-3-3-3-4-4-4-4—-4-4-4-4-|







BRIDGE (1:44)
|-------------------------------------------------------------------|
|-------------------------------------------------------------------|
|-------------------[REST-WHILE-DRUMS-PLAY]-------------------------|
|-------------------------------------------------------------------|
|-------------------------------------------------------------------|

|----------|---------------------------|---------------------------|
|----------|---------------------------|---------------------------|
|----------|---------------------------|---------------------------|
|----------|---------------------------|---------------------------|
|-2----1---|-1-1-1-1-2-1-1-1-1-1-1-2-2-|-1-1-1-1-2-1-1-1-1-1-1-2-2-|

ENDING (2:12)
|-------------------------------------------------------------------|
|-------------------------------------------------------------------|
|-------------------------------------------------------------------|
|---------------[REST-WHILE-GUITAR-AND-DRUMS-PLAY]------------------|
|-------------------------------------------------------------------|

|------------------------|-------------------|
|------------------------|-------------------|
|------------------------|-------------------|
|------------------------|-0—2-4-0-2-4-0-6-5-|
|-9-11-12-9-11-12-9-11-12|-------------------|

|------------------------|-------------------|
|------------------------|-------------------|
|------------------------|-------------------|
|------------------------|-0—2-4-0-2-4-0-6-5-|
|-9-11-12-9-11-12-9-11-12|-------------------|

|------------------------|-------------------|
|------------------------|-------------------|
|------------------------|-------------------|
|------------------------|-0—2-4-0-2-4-0-6-5-|
|-9-11-12-9-11-12-9-11-12|-------------------|

|------------------------|-------------------|
|------------------------|-------------------|
|------------------------|-------------------|
|------------------------|-0—2-4-0-2-4-0-6-5-|
|-9-11-12-9-11-12-9-11-12|-------------------|


please rate and comment me with any problems
comments
We did not receive enough feedback on this tab! Please rate:
print report bad tab
1 2 3 4 5
I want to post or [tab]
guest
You may want to rate the tab now too:
select rating
Please do not post tabs as comments. Select "correction" instead!