Oops, an error
Loading. Please wait.

Colours Bleed Tab

version 1
version 1

Whole song

Interactive

4,933 views 3 this week
2 commentsread comments
1 2 3 4 5
accurate
x 6
add to favorites
launch autoscroll
font size
0
reset
how to read this tab
guitar tuner
Autoscroll
slow
fast
+/-
esc
set tempo
stop
Help us to improve Ultimate-Guitar.com Take our survey!
×
Contributor
Song: Colours Bleed (Album Demo)
From: The English Way Single

I havn't done all of the guitar for this song. The chorus has Guitar 1 and 2 but I have 
done Guitar 1 for the bridge. The rest of the song seems to be played exactly the same 
both guitars or just by 1 guitar.

Intro Distorted Guitar (Play twice)

d#|--------------------------------------------------|
a#|--------------------------------------------------|
f#|6--6-6-6-6-6-6-6-6-7---6--6-6-6-6-6---------------|
c#|x--x-x-x-x-x-x-x-x-x---x--x-x-x-x-x---------------|
g#|4--4-4-4-4-4-4-4-4-5---4--4-4-4-4-4-4-5-4-2-4-2-0-|
c#|--------------------------------------------------|


d#|--------------------------------------------------|
a#|--------------------------------------------------|
f#|--------------------------------------------------|
c#|0--2-2-0-2-0-2-0-2-3-3--0-2-2-0-2-2-0-2-0-2-3-----|
g#|0--2-2-0-2-0-2-0-2-3-3--0-2-2-0-2-2-0-2-0-2-3-----|
c#|0--2-2-0-2-0-2-0-2-3-3--0-2-2-0-2-2-0-2-0-2-3-----|
                                   . .

Verse Distorted Guitar

d#|--------------------------------------------------|
a#|--------------------------------------------------|
f#|--9------9-------9------9------9------9-----------|
c#|-7-7----7-7-----7-7----7-7----7-7----7-7----------|
g#|9---9--9---9---9---9--9---9--9---9--9---9---------|
c#|--------------------------------------------------|

d#|------------------------------------------------------------|
a#|------------------------------------------------------------|
f#|------------------------------------------------------------|
c#|------------------------------------------------------------|
g#|-------5--------------5--------------7--------------7-------|
c#|4-4-4-4-4-4-4--4-4-4-4-4-4-4--7-7-7-7-7-7-7--7-7-7-7-7-7-7--|


d#|--------------------------------|
a#|--------------------------------|
f#|--9------9-------9------9-------|
c#|-7-7----7-7-----7-7----7-7------|
g#|9---9--9---9---9---9--9---9-----|
c#|--------------------------------|

d#|------------------------------------------------------------|
a#|------------------------------------------------------------|
f#|------------------------------------------------------------|
c#|------------------------------------------------------------|
g#|-------5--------------5--------------7--------------7-------|
c#|4-4-4-4-4-4-4--4-4-4-4-4-4-4--7-7-7-7-7-7-7--7-7-7-7-7-7-7--|

Bridge Distorted Guitar

d#|-----------------------------------------------------------------------|
a#|-----------------------------------------------------------------------|
f#|-----------------------------------------------------------------------|
c#|7-7-------2-2-2-2-------0-0----10-10-10-10-10-10-10-10-10-10-10-x-x-x-x|
g#|7-7-------2-2-2-2-------0-0----10-10-10-10-10-10-10-10-10-10-10-x-x-x-x|
c#|7-7-------2-2-2-2-------0-0----10-10-10-10-10-10-10-10-10-10-10-x-x-x-x|
                                     .  .  .  .  .  .  .  .  .  .


Chorus Distorted (Guitar 1)

Strum These Chords
d#|-----------------------------------------------------------------------|
a#|-----------------------------------------------------------------------|
f#|-----------------------------------------------------------------------|
c#|0---10---5---5-5-5-4-4-4-5-5-5-4-4-4-5-4----0---10---5-----------------|
g#|0---10---5-------------------------------5--0---10---5-----------------|
c#|0---10---5----------------------------------0---10---5-----------------|


Chorus Distorted (Guitar 2)

d#|------10----------------------------------------------------------------|
a#|-7-8-7--8-7-8----Repeat this then play--8-8-8-7-7-7-8-8-8-7-7-7-8-7-----|
f#|7-------------------------------------------------------------------7---|
c#|------------------------------------------------------------------------|
g#|------------------------------------------------------------------------|
c#|------------------------------------------------------------------------|


2nd Intro Distorted


d#|------------------------------------------------------------------------|
a#|------------------------------------------------------------------------|
f#|-----------14---13------------------------------------------------------|
c#|----0-0-0--x----x---0-0--4-5--------------------------------------------|
g#|----0-0-0--12---11--0-0--4-5--------------------------------------------|
c#|12--0-0-0-----0-----0-0--4-5--------------------------------------------|
       . . .     .     . .

d#|--------------------------------------------------|
a#|--------------------------------------------------|
f#|6--6-6-6-6-6-6-6-6-7---6--6-6-6-6-6---------------|
c#|x--x-x-x-x-x-x-x-x-x---x--x-x-x-x-x---------------|
g#|4--4-4-4-4-4-4-4-4-5---4--4-4-4-4-4-4-5-4-2-4-2-0-|
c#|--------------------------------------------------|


d#|--------------------------------------------------|
a#|--------------------------------------------------|
f#|--------------------------------------------------|
c#|0--2-2-0-2-0-2-0-2-3-3--0-2-2-0-2-2-0-2-0-2-3-----|
g#|0--2-2-0-2-0-2-0-2-3-3--0-2-2-0-2-2-0-2-0-2-3-----|
c#|0--2-2-0-2-0-2-0-2-3-3--0-2-2-0-2-2-0-2-0-2-3-----|
                                   . .

Verse Distorted Guitar

d#|--------------------------------------------------|
a#|--------------------------------------------------|
f#|--9------9-------9------9------9------9-----------|
c#|-7-7----7-7-----7-7----7-7----7-7----7-7----------|
g#|9---9--9---9---9---9--9---9--9---9--9---9---------|
c#|--------------------------------------------------|

d#|------------------------------------------------------------|
a#|------------------------------------------------------------|
f#|------------------------------------------------------------|
c#|------------------------------------------------------------|
g#|-------5--------------5--------------7--------------7-------|
c#|4-4-4-4-4-4-4--4-4-4-4-4-4-4--7-7-7-7-7-7-7--7-7-7-7-7-7-7--|


d#|--------------------------------|
a#|--------------------------------|
f#|--9------9-------9------9-------|
c#|-7-7----7-7-----7-7----7-7------|
g#|9---9--9---9---9---9--9---9-----|
c#|--------------------------------|

d#|------------------------------------------------------------|
a#|------------------------------------------------------------|
f#|------------------------------------------------------------|
c#|------------------------------------------------------------|
g#|-------5--------------5--------------7--------------7-------|
c#|4-4-4-4-4-4-4--4-4-4-4-4-4-4--7-7-7-7-7-7-7--7-7-7-7-7-7-7--|

Bridge Distorted Guitar

d#|-----------------------------------------------------------------------|
a#|-----------------------------------------------------------------------|
f#|-----------------------------------------------------------------------|
c#|7-7-------2-2-2-2-------0-0----10-10-10-10-10-10-10-10-10-10-10-x-x-x-x|
g#|7-7-------2-2-2-2-------0-0----10-10-10-10-10-10-10-10-10-10-10-x-x-x-x|
c#|7-7-------2-2-2-2-------0-0----10-10-10-10-10-10-10-10-10-10-10-x-x-x-x|
                                     .  .  .  .  .  .  .  .  .  .


Chorus Distorted (Guitar 1)

Strum These Chords
d#|-----------------------------------------------------------------------|
a#|-----------------------------------------------------------------------|
f#|-----------------------------------------------------------------------|
c#|0---10---5---5-5-5-4-4-4-5-5-5-4-4-4-5-4----0---10---5-----------------|
g#|0---10---5-------------------------------5--0---10---5-----------------|
c#|0---10---5----------------------------------0---10---5-----------------|


Chorus Distorted (Guitar 2)

d#|------10----------------------------------------------------------------|
a#|-7-8-7--8-7-8----Repeat this then play--8-8-8-7-7-7-8-8-8-7-7-7-8-7-----|
f#|7-------------------------------------------------------------------7---|
c#|------------------------------------------------------------------------|
g#|------------------------------------------------------------------------|
c#|------------------------------------------------------------------------|


Play This Twice

d#|------------------------------------------------------------------------|
a#|------------------------------------------------------------------------|
f#|-----------14---13------------------------------------------------------|
c#|----0-0-0--x----x---0-0-0-4-5----x2----0~-------------------------------|
g#|----0-0-0--12---11--0-0-0-4-5----------0~-------------------------------|
c#|12--0-0-0-----0-----0-0-0-4-5----------0~-------------------------------|
       . . .     .     . . .


Breakdown

d#|------------------------------------------------------------------------|
a#|------------------------------------------------------------------------|
f#|------------------------------------------------------------------------|
c#|0-0-0-0-0-0-0-0-0-0----5-----x7-Then--0-0-0-0-0-0-0---------------------|
g#|0-0-0-0-0-0-0-0-0-0--3----------------0-0-0-0-0-0-0---------------------|
c#|0-0-0-0-0-0-0-0-0-0-------------------0-0-0-0-0-0-0---------------------|
   . . . . . . . . . .                   . . . . . . .

d#|------------------------------------------------------------------------|
a#|------------------------------------------------------------------------|
f#|------------------------------------------------------------------------|
c#|0-0-0-1-0-1-0-0-0----5-----x4----0-0-0-1-0-1-0-0-0---------------x4-----|
g#|0-0-0-1-0-1-0-0-0---3------------0-0-0-1-0-1-0-0-0-------10-12----------|
c#|0-0-0-1-0-1-0-0-0----------------0-0-0-1-0-1-0-0-0-10-12----------------|

d#|---------------------------------------------------|
a#|---------------------------------------------------|
f#|---------------------------------------------------|
c#|0-0-0-0-0-0-0-0-0-0-0-0-0-0-0-0-0-0----------------|
g#|0-0-0-0-0-0-0-0-0-0-0-0-0-0-0-0-0-0----------------|
c#|0-0-0-0-0-0-0-0-0-0-0-0-0-0-0-0-0-0----------------|
   . . . . . . . . . . . . . . . . .
Suggest correction new What's this?
You can suggest a correction to this tab. Community and Mods will review your correction and vote to approve or reject it.
comments
print report bad tab
2 comments total.
+1 reply
Streety2 265 wrote on April 20 2009, 02:16 pm

heyy :) awesome tab man its pretty much perfect
but i think the outro bit where you have:
d#|--------------------------------|
f#|--------------------------------|
c#|0-0-0-1-0-1-0-0-0----5-----x4---|
g#|0-0-0-1-0-1-0-0-0---3-----------|
c#|0-0-0-1-0-1-0-0-0---------------|
i think it goes more like:
d#|--------------------------------|
f#|--------------------------------|
c#|0-0-0-1-0-1-0-0-0--------5-x4---|
g#|0-0-0-1-0-1-0-0-0--0h3h5--------|
c#|0-0-0-1-0-1-0-0-0---------------|
other than that its perfect :)

0 reply
rich.t 135 wrote on May 9 2011, 05:39 pm

Great tab! one little correction though. The chorus riff is ALMOST perfect just 1 note out!

You have it as:

d#|------10----------------------------------------------------------------|
a#|-7-8-7--8-7-8----Repeat this then play--8-8-8-7-7-7-8-8-8-7-7-7-8-7-----|
f#|7-------------------------------------------------------------------7---|
c#|------------------------------------------------------------------------|
g#|------------------------------------------------------------------------|
c#|------------------------------------------------------------------------|

it is actually:

d#|-------10----------------------------------------------------------------|
a#|-10-8-7--8-7-8----Repeat this then play--8-8-8-7-7-7-8-8-8-7-7-7-8-7-----|
f#|7--------------------------------------------------------------------7---|
c#|-------------------------------------------------------------------------|
g#|-------------------------------------------------------------------------|
c#|-------------------------------------------------------------------------|

guest
You may want to rate the tab now too:
select rating
Please do not post tabs as comments. Select "correction" instead!