Oops, an error
Loading. Please wait.

Cross Out The Stars Tab

version 1
version 1

Whole song

Interactive

3,902 views 1 this week
8 commentsread comments
1 2 3 4 5
excellent!
x 10
add to favorites
launch autoscroll
font size
0
reset
how to read this tab
guitar tuner
Tab Pro tools
  • play this tab
  • loop segment
  • change instrument
  • show fretboard
  • metronome
×
Best way to learn
"Cross Out The Stars"
Autoscroll
slow
fast
+/-
esc
set tempo
stop
Contributor
Artist: FightStar
Song: Cross Out The Stars
Album: Paint Your Target (Single)

Tabbed by: John O'Nolan, Copyright 2005, All rights reserved.

Tuning: D - ( D/G/c/F/A/d )
Effects: Phaser

p  = pull
h  = hammer
s  = slide
~  = let ring
x  = muted string



-=> 1st Guitar Part - Charlie Simpson <=-


Effects notes: Guitar 1 uses Phaser throughout practically the whole
song. Set effect to lowest gain, lowest pre-gain, lowest pase rate, 
and quarter tone.



=>INTRO<= (Phaser)
d |-0---0---0---0---2---2---2---2---|---------0h2-2s3-3h5-|
A |---3---3---3---3---3---3---3---3-|-2h3-3s5-------------|
F |---------------------------------|---------------------|
C |---------------------------------|---------------------|
G |---------------------------------|---------------------|
D |---------------------------------|---------------------|

=>INTRO<=
d |-5---5---5---5---3---3---3---3---|
A |---3---3---3---3---3---3---3---3-|
F |---------------------------------|
C |---------------------------------|
G |---------------------------------|
D |---------------------------------|

=>VERSE<=
d |-0---0---0---0---2---2---2---2---|---------0h2-2s3-3h5-|
A |---3---3---3---3---3---3---3---3-|-2h3-3s5-------------|
F |---------------------------------|---------------------|
C |---------------------------------|---------------------|
G |---------------------------------|---------------------|
D |---------------------------------|---------------------|
                    I woke up cold november...

=>VERSE<=
d |-0---0---0---0---2---2---2---2---|---------0h2-2s3-3h5-|
A |---3---3---3---3---3---3---3---3-|-2h3-3s5-------------|
F |---------------------------------|---------------------|
C |---------------------------------|---------------------|
G |---------------------------------|---------------------|
D |---------------------------------|---------------------|
                    It takes a lot...

=>VERSE<=
d |-5---5---5---5---3---3---3---3---|
A |---3---3---3---3---3---3---3---3-|
F |---------------------------------|
C |---------------------------------|
G |---------------------------------|
D |---------------------------------|
                    I've only myself to blame...


=>BREAK<= (Phaser)
d |-----2-------2-------2-------2---|-----2-------2-------2-------2---|
A |---3---3---3---3---3---3---3---3-|---3---3---3---3---3---3---3---3-|
F |---------------------------------|---------------------------------|
C |-0-------0-------0-------0-------|-0-------0-------0-------0-------|
G |---------------------------------|---------------------------------|
D |---------------------------------|---------------------------------|


=>PRE CHORUS<= (Phaser)
d |----------------2-2-2-2-2-2-2-2--|---------------0~----2~----------|
A |---------------------------------|-------------------------3~------|
F |---------------------------------|---------------------------------|
C |---------------------------------|---------------------------------|
G |---------------------------------|---------------------------------|
D |---------------------------------|---------------------------------|
      I try not to loose   what i tried so hard to  show  to  you


=>CHORUS<= (No Phaser)
d |----------------------------------|
A |----------------------------------|
F |----------------------------------|
C |-12-12-12--12-12-12--5-5-5--5-5-5-| Times 4
G |-12-12-12--12-12-12--5-5-5--5-5-5-|
D |-10-10-10--10-10-10--3-3-3--3-3-3-|


=>VERSE<=
d |-0---0---0---0---2---2---2---2---|---------0h2-2s3-3h5-|
A |---3---3---3---3---3---3---3---3-|-2h3-3s5-------------|
F |---------------------------------|---------------------|
C |---------------------------------|---------------------|
G |---------------------------------|---------------------|
D |---------------------------------|---------------------|
                    I crossed out all the stars...

=>VERSE<=
d |-0---0---0---0---2---2---2---2---|---------0h2-2s3-3h5-|
A |---3---3---3---3---3---3---3---3-|-2h3-3s5-------------|
F |---------------------------------|---------------------|
C |---------------------------------|---------------------|
G |---------------------------------|---------------------|
D |---------------------------------|---------------------|
                    To try to show...

=>VERSE<=
d |-5---5---5---5---3---3---3---3---|
A |---3---3---3---3---3---3---3---3-|
F |---------------------------------|
C |---------------------------------|
G |---------------------------------|
D |---------------------------------|
                    I've only myself to blame...


=>BREAK<= (Phaser)
d |-----2-------2-------2-------2---|-----2-------2-------2-------2---|
A |---3---3---3---3---3---3---3---3-|---3---3---3---3---3---3---3---3-|
F |---------------------------------|---------------------------------|
C |-0-------0-------0-------0-------|-0-------0-------0-------0-------|
G |---------------------------------|---------------------------------|
D |---------------------------------|---------------------------------|


=>PRE CHORUS<= (Phaser)
d |----------------2-2-2-2-2-2-2-2--|---------------0~----2~----------|
A |---------------------------------|-------------------------3~------|
F |---------------------------------|---------------------------------|
C |---------------------------------|---------------------------------|
G |---------------------------------|---------------------------------|
D |---------------------------------|---------------------------------|
      I try not to loose   what i tried so hard to  show  to  you


=>CHORUS<= (No Phaser)
d |----------------------------------|
A |----------------------------------|
F |----------------------------------|
C |-12-12-12--12-12-12--5-5-5--5-5-5-| Times 4
G |-12-12-12--12-12-12--5-5-5--5-5-5-|
D |-10-10-10--10-10-10--3-3-3--3-3-3-|
    How long...


=>BRIDGE<= (Phaser, Palm mute)
d |----0000---2233---3333---3333----|----0000---2233---3333---3333----|
A |----3333---3333---2222---2222----|----3333---3333---2222---2222----|
F |----2222---2222---0000---0000----|----2222---2222---0000---0000----|
C |------------------0000---0000----|------------------0000---0000----|
G |------------------0000---0000----|------------------0000---0000----|
D |------------------3333---3333----|------------------3333---3333----|
          Its been a long...                    Its been such a long...


=>CHORUS<= (No Phaser)
d |----------------------------------|
A |----------------------------------|
F |----------------------------------|
C |-12-12-12--12-12-12--5-5-5--5-5-5-| Times 4
G |-12-12-12--12-12-12--5-5-5--5-5-5-|
D |-10-10-10--10-10-10--3-3-3--3-3-3-|
    How long...


=>BREAK<= (Slowly getting louder)
d |---------------------------------|
A |---------------------------------|
F |---------------------------------|
C |-2-2-2-2-2-2-2-2-2-2-2-2-2-2-2-2-|
G |-2-2-2-2-2-2-2-2-2-2-2-2-2-2-2-2-|
D |-0-0-0-0-0-0-0-0-0-0-0-0-0-0-0-0-|


=>OUTRO<= (Phaser)
d |-17c-17c-15c-14c-----------------|-17c-17c-15c-14c-----------------|
A |-----------------17c-15c-14c-15c-|-----------------17c-15c-14c-15c-|
F |---------------------------------|---------------------------------|
C |---------------------------------|---------------------------------|
G |---------------------------------|---------------------------------|
D |---------------------------------|---------------------------------|

=>OUTRO<= (Phaser) (all continuous picking)
d |-10--12--14--15---17--17-----15--|-14-12-14---17--19--21-10--9-10--|
A |---------------------------------|---------------------------------|
F |---------------------------------|---------------------------------|
C |---------------------------------|---------------------------------|
G |---------------------------------|---------------------------------|
D |---------------------------------|---------------------------------|

=>OUTRO<= (Phaser)
d |-22~----21~-17~--22~----21~-22~--|-22~----21~-17~--22~-------------|
A |---------------------------------|---------------------------------|
F |---------------------------------|---------------------------------|
C |---------------------------------|---------------------------------|
G |---------------------------------|---------------------------------|
D |---------------------------------|---------------------------------|

=>OUTRO<= (Phaser)
d |-22c----21c-19c--22c----21c-22c--|-22c----21c-19c--22c----21c-22c--|
A |---------------------------------|---------------------------------|
F |---------------------------------|---------------------------------|
C |---------------------------------|---------------------------------|
G |---------------------------------|---------------------------------|
D |---------------------------------|---------------------------------|

=>OUTRO<= (Phaser)
d |-22~----21~-17~--22~----21~-22~--|-22~----21~-17~--22~-------------|
A |---------------------------------|---------------------------------|
F |---------------------------------|---------------------------------|
C |---------------------------------|---------------------------------|
G |---------------------------------|---------------------------------|
D |---------------------------------|---------------------------------|



***************************************************************************************



-=> 2nd Guitar Part - Alex Westaway <=-




=>INTRO<= (Clean strumming)
d |--0-0-0---2-2-2---3-3-3---3-3-3--|
A |--3-3-3---3-3-3---2-2-2---2-2-2--|
F |--2-2-2---2-2-2---0-0-0---0-0-0--|
C |------------------0-0-0---0-0-0--|
G |------------------0-0-0---0-0-0--|
D |------------------3-3-3---3-3-3--|

=>VERSE<=
d |------------------0-0-0---2-2-2--|--3-3-3---3-3-3--|
A |------------------3-3-3---3-3-3--|--2-2-2---2-2-2--|
F |------------------2-2-2---2-2-2--|--0-0-0---0-0-0--|
C |--2-2-2---2-2-2------------------|--0-0-0---0-0-0--|
G |--2-2-2---2-2-2------------------|--0-0-0---0-0-0--|
D |--3-3-3---3-3-3------------------|--3-3-3---3-3-3--|

                            I Woke up cold...
=>VERSE<=
d |--0-0-0---2-2-2---3-3-3---3-3-3--|
A |--3-3-3---3-3-3---2-2-2---2-2-2--|
F |--2-2-2---2-2-2---0-0-0---0-0-0--|
C |------------------0-0-0---0-0-0--|
G |------------------0-0-0---0-0-0--|
D |------------------3-3-3---3-3-3--|
            It takes a lot...        

=>VERSE<=
d |------------------x--------------|
A |------------------x--------------|
F |------------------x--------------|
C |--2-2-2---2-2-2------------------|
G |--2-2-2---2-2-2------------------|
D |--3-3-3---3-3-3------------------|
            I've only myself to blame...


=>PRE CHORUS<=
d |---------------------------------|---------------------------------|
A |---------------------------------|---------------------------------|
F |--------------REST---------------|--------------REST---------------|
C |---------------------------------|---------------------------------|
G |---------------------------------|---------------------------------|
D |---------------------------------|---------------------------------|


=>PRE CHORUS<= (Palm mute 1st bar, open 2nd bar)
d |---------------------------------|---------------------------------|
A |---------------------------------|---------------------------------|
F |---------------------------------|---------------------------------|
C |----------------9-9-9-9-9-9-9-9--|---------------7~----9~--5~------|
G |----------------9-9-9-9-9-9-9-9--|---------------7~----9~--5~------|
D |----------------7-7-7-7-7-7-7-7--|---------------5~----7~--3~------|
      I try not to loose   what i tried so hard to  show  to  you


=>CHORUS<=
d |--2-2-2---2-2-2---3-3-3---3-3-3--|
A |--3-3-3---3-3-3---2-2-2---2-2-2--|
F |--2-2-2---2-2-2---0-0-0---0-0-0--|
C |------------------0-0-0---0-0-0--| Times 4
G |------------------0-0-0---0-0-0--|
D |------------------3-3-3---3-3-3--|
     How long...


=>VERSE<=
d |--2-2-2---2-2-2---3-3-3---3-3-3--|--2-2-2---2-2-2---3-3-3---3-3-3--|
A |--3-3-3---3-3-3---2-2-2---2-2-2--|--3-3-3---3-3-3---2-2-2---2-2-2--|
F |--2-2-2---2-2-2---0-0-0---0-0-0--|--2-2-2---2-2-2---0-0-0---0-0-0--|
C |------------------0-0-0---0-0-0--|------------------0-0-0---0-0-0--|
G |------------------0-0-0---0-0-0--|------------------0-0-0---0-0-0--|
D |------------------3-3-3---3-3-3--|------------------3-3-3---3-3-3--|
            I crossed out all...               To try to show...

=>VERSE<=
d |------------------3~-------------|
A |------------------2~-------------|
F |------------------3~-------------|
C |--2-2-2---2-2-2------------------|
G |--2-2-2---2-2-2------------------|
D |--3-3-3---3-3-3------------------|
            I've only myself to blame...


=>PRE CHORUS<=
d |---------------------------------|---------------------------------|
A |---------------------------------|---------------------------------|
F |--------------REST---------------|--------------REST---------------|
C |---------------------------------|---------------------------------|
G |---------------------------------|---------------------------------|
D |---------------------------------|---------------------------------|


=>PRE CHORUS<= (Palm mute 1st bar, open 2nd bar)
d |---------------------------------|---------------------------------|
A |---------------------------------|---------------------------------|
F |---------------------------------|---------------------------------|
C |----------------9-9-9-9-9-9-9-9--|---------------7~----9~--5~------|
G |----------------9-9-9-9-9-9-9-9--|---------------7~----9~--5~------|
D |----------------7-7-7-7-7-7-7-7--|---------------5~----7~--3~------|
      I try not to loose   what i tried so hard to  show  to  you


=>CHORUS<=
d |--2-2-2---2-2-2---3-3-3---3-3-3--|
A |--3-3-3---3-3-3---2-2-2---2-2-2--|
F |--2-2-2---2-2-2---0-0-0---0-0-0--|
C |------------------0-0-0---0-0-0--| Times 4
G |------------------0-0-0---0-0-0--|
D |------------------3-3-3---3-3-3--|
     How long...


=>BRIDGE<= (Palm mute)
d |---------------------------------|----0000---2233---3333---3333----|
A |---------------------------------|----3333---3333---2222---2222----|
F |--------------REST---------------|----2222---2222---0000---0000----|
C |---------------------------------|------------------0000---0000----|
G |---------------------------------|------------------0000---0000----|
D |---------------------------------|------------------3333---3333----|
          Its been a long...                    Its been such a long...


=>CHORUS<=
d |--2-2-2---2-2-2---3-3-3---3-3-3--|
A |--3-3-3---3-3-3---2-2-2---2-2-2--|
F |--2-2-2---2-2-2---0-0-0---0-0-0--|
C |------------------0-0-0---0-0-0--| Times 4
G |------------------0-0-0---0-0-0--|
D |------------------3-3-3---3-3-3--|
     How long...


=>BREAK<= (Slowly getting louder)
d |---------------------------------|
A |---------------------------------|
F |---------------------------------|
C |-2-2-2-2-2-2-2-2-2-2-2-2-2-2-2-2-|
G |-2-2-2-2-2-2-2-2-2-2-2-2-2-2-2-2-|
D |-0-0-0-0-0-0-0-0-0-0-0-0-0-0-0-0-|


=>OUTRO<=
d |----2222---2222---3333---3333----|
A |----3333---3333---2222---2222----|
F |----2222---2222---0000---0000----|
C |------------------0000---0000----| Times 4
G |------------------0000---0000----|
D |------------------3333---3333----|

=>OUTRO<=
d |----2~-----0~-----2~-----r-------|
A |----3~-----3~-----3~-----e-------|
F |----2~-----2~-----2~-----s-------|
C |-------------------------t-------| Times 2
G |---------------------------------|
D |---------------------------------|

=>OUTRO<=
d |----2222---2222---3333---3333----|
A |----3333---3333---2222---2222----|
F |----2222---2222---0000---0000----|
C |------------------0000---0000----| Times 2
G |------------------0000---0000----|
D |------------------3333---3333----|

=>OUTRO<=
d |----2~-----0~-----2~-----r-------|
A |----3~-----3~-----3~-----e-------|
F |----2~-----2~-----2~-----s-------|
C |-------------------------t-------| Times 1
G |---------------------------------|
D |---------------------------------|
comments
print report bad tab
8 comments total. Showing first comments.
0 reply
musicidot wrote on August 19 2007, 11:05 am

sounds nice, special the verse part, awesome good job

0 reply
imsimon wrote on March 6 2008, 02:29 pm

have you tabbed Alex's part in standard tuning?
it look like you have

0 reply
ThomGreenwood99 wrote on October 7 2008, 03:16 pm

i think that instead of this:
=>INTRO

I want to post or [tab]
guest
You may want to rate the tab now too:
select rating
Please do not post tabs as comments. Select "correction" instead!