Oops, an error
Loading. Please wait.

Deathcar Bass Tab

version 1
version 1

Whole song

Interactive

1,432 views 1 this week
no commentswrite comment
1 2 3 4 5
1 last vote to show rating
add to favorites
launch autoscroll
font size
0
reset
guitar tuner
Autoscroll
slow
fast
+/-
esc
set tempo
stop
Help us to improve Ultimate-Guitar.com Take our survey!
×
Difficulty
Tuning
intermediate
C G C F A D
-------------------------------------------------------------------------------
			     DEATH CAR- FIGHTSTAR
-------------------------------------------------------------------------------

Tabbed By : 
e-mail: 

Tuning: Dropped C (C,G,C,F)

X = Mute Note after it's being played
h = Hammer on
/ = Slide down

Intro
F|----------------------------------------------------------|
C|----------------------------------------------------------|
G|----------------------------------------------------------|
C|-13-10-12-10-13--0-3-0-6~-6~-6~-0-0-0---------------------|

F|----------------------------------------------------------|
C|----------------------------------------------------------|
G|----------------------------------------------------------| X2
C|-13-10-12-10-13--0-3-0-6~-6~-6~-3-0-2-0~-0-0--------------|

F|---------------------------------------------------------------|
C|---------------------------------------------------------------|
G|---------------------------------------------------------------|
C|-3-0-1-0-3-0~--3-00-6-6-6--3-0-1-0-3-0~--3-00-6-6-6--3-0-2-0~--|

Verse
F|---------------------------------------------------------------|
C|---------------------------------------------------------------|
G|--9~----9~----9~----9~-----2~----2~----2~---2------------------|
C|----------------------------------------------22---------------|

F|---------------------------------------------------------------|
C|---------------------------------------------------------------|
G|--9~----9~----9~----9/12-----2~----2~----2~---2----------------|
C|------------------------------------------------222------------|

Chourus (they are '11's not '1's)  
F|---------------------------------------------------------------|
C|---------------------------------------------------------------|
G|-------------------------------------77/9999/11111111----------|
C|-0~-0000-0000-0000-0007~-7777-7777-77--------------------------|
                                                                     X2
F|---------------------------------------------------------------|
C|---------------------------------------------------------------|
G|---------------------------------------------------------------|
C|-9~-9999-9999-9999-9995~-5555-5555-5555-5555-------------------|

Pre-Verse
F|----------------------------------------------------------|
C|----------------------------------------------------------|
G|----------------------------------------------------------|
C|-13-10-12-10-13--0-3-0-6~-6~-6~-3-0-2-0~-0-0--------------|

F|----------------------------------------------------------|
C|----------------------------------------------------------|
G|----------------------------------------------------------|
C|-13-10-12-10-13--0-3-0-6~-6~-6~-0-0-0---------------------|

F|----------------------------------------------------------|
C|----------------------------------------------------------| X2
G|----------------------------------------------------------|
C|-13-10-12-10-13--0-3-0-6~-6~-6~-3-0-2-0~-0-0--------------|

BREAK ("You make me FUCKING SICK!")

F|---------------------------------------------------------------|
C|---------------------------------------------------------------|
G|---------------------------------------------------------------|
C|-3-0-1-0-3-0~--3-00-6-6-6--3-0-1-0-3-0~--3-00-6-6-6--3-0-2-0~--|

Verse
F|---------------------------------------------------------------|
C|---------------------------------------------------------------|
G|--9~----9~----9~----9~-----2~----2~----2~---2------------------|
C|----------------------------------------------22---------------|

F|---------------------------------------------------------------|
C|---------------------------------------------------------------|
G|--9~----9~----9~----9/12-----2~----2~----2~---2----------------|
C|------------------------------------------------222------------|

Chourus (they are '11's not '1's)  
F|---------------------------------------------------------------|
C|---------------------------------------------------------------|
G|-------------------------------------77/9999/11111111----------|
C|-0~-0000-0000-0000-0007~-7777-7777-77--------------------------|
                                                                     X2
F|---------------------------------------------------------------|
C|---------------------------------------------------------------|
G|---------------------------------------------------------------|
C|-9~-9999-9999-9999-9995~-5555-5555-5555-5555-------------------|

Breakdown/interlude
F|---------------------------------------------------------------|
C|---------------------------------------------------------------| 
G|---------------------------------------------------------------|
C|-6-6-6---x-x-x-6-6-6--5-5-5--9-9-9--2-2-2-5-5-5-5-5-5----------|

F|---------------------------------------------------------------------|
C|---------------------------------------------------------------------| 
G|---------------------------------------------------------------------|
C|-6-6-6---x-x-x-6-6-6--5-5-5--9-9-9--2-2-2-5-5-5-5-5-5-5-5-5-5-5-5----|

Chourus (they are '11's not '1's)  
F|---------------------------------------------------------------|
C|---------------------------------------------------------------|
G|-------------------------------------77/9999/11111111----------|
C|-------------------------7777-7777-77--------------------------|
                                                                     
F|---------------------------------------------------------------|
C|---------------------------------------------------------------|
G|---------------------------------------------------------------|
C|-9~-9999-9999-9999-9995~-5555-5555-555-32-00-32-00-------------|

F|---------------------------------------------------------------|
C|---------------------------------------------------------------|
G|-------------------------------------77/9999/11111111----------|
C|-0~-0000-0000-0000-0007~-7777-7777-77--------------------------|
                     
F|---------------------------------------------------------------|
C|---------------------------------------------------------------|
G|---------------------------------------------------------------|
C|-9~-9999-9999-9999-9995~-5555-5555-5555-5555-------------------|

Outro
F|-------------------------------------|
C|-------------------------------------| Play until end
G|-------------------------------------|
C|-0-0-0-3-2-0------0-0-0-3-2-0--------|
Suggest correction
Give kudos to tab author, rate the tab!
1 2 3 4 5
comments
print report bad tab
guest
You may want to rate the tab now too:
select rating
Wanna post a correction for this tab? Suggest correction