Oops, an error
Loading. Please wait.

Deathcar Tab

version 1
version 1

Whole song

Interactive

3,221 views 1 this week
3 commentsread comments
1 2 3 4 5
accurate
x 5
add to favorites
launch autoscroll
font size
0
reset
how to read this tab
guitar tuner
Autoscroll
slow
fast
+/-
esc
set tempo
stop
Help us to improve Ultimate-Guitar.com Take our survey!
×
Author
Difficulty
Tuning
19371 1,391
intermediate
C G C F A D
-----------------------------------------------------------------------------
                             SONG NAME - Band Name
-----------------------------------------------------------------------------
Tabbed by: Benji James (19371)
Song: Deathcar
Band: Fighstar
Album: One Day Son, This Will All Be Yours

Tuning: Drop C

(Drive, you're not gonna be prepared...)
D|-------------------|-------------|-------------|-----------------------|
A|-------------------|-------------|-------------|-----------------------|
F|-------------------|-------------|-------------|-----------------------|
C|-13-10-12-10-13-10-|-0-0-0--12-0-|-0-0-x-13-13-|-0-0-0-----------------|
G|-13-10-12-10-13-10-|-0-0-0--12-0-|-0-0-x-13-13-|-0-0-0-----------------|
C|-13-10-12-10-13-10-|-0-0-0--12-0-|-0-0-x-13-13-|-0-0-0-13-13-13-13-13--|

D|-------------------|-------------|-------------|-----------------------|
A|-------------------|-------------|-------------|-----------------------|
F|-------------------|-------------|-------------|-----------------------|
C|-13-10-12-10-13-10-|-0-0-0--12-0-|-0-0-x-13-13-|-0--3--0--1------------|
G|-13-10-12-10-13-10-|-0-0-0--12-0-|-0-0-x-13-13-|-0--3--0--1------------|
C|-13-10-12-10-13-10-|-0-0-0--12-0-|-0-0-x-13-13-|-0--3--0--1------------|

Verse:

(Follow me outside and I'll...) Do each 4 times...
D|------------------|---------------|------------------|-----------------|
A|------------------|---------------|------------------|-----------------|
F|------------12-11-|----------10-9-|------------12-11-|----------10-9---|
C|-9-11-12-11-------|-7-9-10-9------|-9-11-12-11-------|-7-9-10-9--------|
G|------------------|---------------|------------------|-----------------|
C|------------------|---------------|------------------|-----------------|

Chorus:

(So bring out the Deathcar...)
D|-------------------|-------------|-------------|-------------------|
A|-------------------|-------------|-------------|-------------------|
F|-7--7--7--7--7--7--|-7-7-7-7-7-7-|-7-7-7-7-7-7-|-7--7--7--7--7--7--|
C|-7--7--7--7--7--7--|-7-7-7-7-7-7-|-5-5-5-5-5-5-|-5--5--5--5--5--5--|
G|-5--5--5--5--5--5--|-5-5-5-5-5-5-|-5-5-5-5-5-5-|-5--5--5--5--5--5--|
C|-------------------|-------------|-5-5-5-5-5-5-|-5--5--5--5--5--5--|

D|-------------------|-------------|-------------|-------------------|
A|-------------------|-------------|-------------|-------------------|
F|-7--7--7--7--7--7--|-7-7-7-7-7-7-|-7-7-7-7-7-7-|-7--7--7--7--7--7--|
C|-7--7--7--7--7--7--|-7-7-7-7-7-7-|-5-5-5-5-5-5-|-5--5--5--5--5--5--|
G|-5--5--5--5--5--5--|-5-5-5-5-5-5-|-5-5-5-5-5-5-|-5--5--5--5--5--5--|
C|-------------------|-------------|-5-5-5-5-5-5-|-5--5--5--5--5--5--|

D|-------------------|-------------|-------------|-------------------|
A|-------------------|-------------|-------------|-------------------|
F|-7--7--7--7--7--7--|-7-7-7-7-7-7-|-7-7-7-7-7-7-|-7--7--7--7--7--7--|
C|-7--7--7--7--7--7--|-7-7-7-7-7-7-|-5-5-5-5-5-5-|-5--5--5--5--5--5--|
G|-5--5--5--5--5--5--|-5-5-5-5-5-5-|-5-5-5-5-5-5-|-5--5--5--5--5--5--|
C|-------------------|-------------|-5-5-5-5-5-5-|-5--5--5--5--5--5--|

D|-------------------|-------------|-------------|-------------------|
A|-------------------|-------------|-------------|-------------------|
F|-7--7--7--7--7--7--|-7-7-7-7-7-7-|-7-7-7-7-7-7-|-7--7--7--7--7--7--|
C|-7--7--7--7--7--7--|-7-7-7-7-7-7-|-5-5-5-5-5-5-|-5--5--5--5--5--5--|
G|-5--5--5--5--5--5--|-5-5-5-5-5-5-|-5-5-5-5-5-5-|-5--5--5--5--5--5--|
C|-------------------|-------------|-5-5-5-5-5-5-|-5--5--5--5--5--5--|

Verse:

(Swallow your last breath of air...) Do each one 4 times...
D|------------------|---------------|------------------|-----------------|
A|------------------|---------------|------------------|-----------------|
F|------------12-11-|----------10-9-|------------12-11-|----------10-9---|
C|-9-11-12-11-------|-7-9-10-9------|-9-11-12-11-------|-7-9-10-9--------|
G|------------------|---------------|------------------|-----------------|
C|------------------|---------------|------------------|-----------------|

Chorus:

(So bring out the Deathcar...)
D|-------------------|-------------|-------------|-------------------|
A|-------------------|-------------|-------------|-------------------|
F|-7--7--7--7--7--7--|-7-7-7-7-7-7-|-7-7-7-7-7-7-|-7--7--7--7--7--7--|
C|-7--7--7--7--7--7--|-7-7-7-7-7-7-|-5-5-5-5-5-5-|-5--5--5--5--5--5--|
G|-5--5--5--5--5--5--|-5-5-5-5-5-5-|-5-5-5-5-5-5-|-5--5--5--5--5--5--|
C|-------------------|-------------|-5-5-5-5-5-5-|-5--5--5--5--5--5--|

D|-------------------|-------------|-------------|-------------------|
A|-------------------|-------------|-------------|-------------------|
F|-7--7--7--7--7--7--|-7-7-7-7-7-7-|-7-7-7-7-7-7-|-7--7--7--7--7--7--|
C|-7--7--7--7--7--7--|-7-7-7-7-7-7-|-5-5-5-5-5-5-|-5--5--5--5--5--5--|
G|-5--5--5--5--5--5--|-5-5-5-5-5-5-|-5-5-5-5-5-5-|-5--5--5--5--5--5--|
C|-------------------|-------------|-5-5-5-5-5-5-|-5--5--5--5--5--5--|

D|-------------------|-------------|-------------|-------------------|
A|-------------------|-------------|-------------|-------------------|
F|-7--7--7--7--7--7--|-7-7-7-7-7-7-|-7-7-7-7-7-7-|-7--7--7--7--7--7--|
C|-7--7--7--7--7--7--|-7-7-7-7-7-7-|-5-5-5-5-5-5-|-5--5--5--5--5--5--|
G|-5--5--5--5--5--5--|-5-5-5-5-5-5-|-5-5-5-5-5-5-|-5--5--5--5--5--5--|
C|-------------------|-------------|-5-5-5-5-5-5-|-5--5--5--5--5--5--|

D|-------------------|-------------|-------------|-------------------|
A|-------------------|-------------|-------------|-------------------|
F|-7--7--7--7--7--7--|-7-7-7-7-7-7-|-7-7-7-7-7-7-|-7--7--7--7--7--7--|
C|-7--7--7--7--7--7--|-7-7-7-7-7-7-|-5-5-5-5-5-5-|-5--5--5--5--5--5--|
G|-5--5--5--5--5--5--|-5-5-5-5-5-5-|-5-5-5-5-5-5-|-5--5--5--5--5--5--|
C|-------------------|-------------|-5-5-5-5-5-5-|-5--5--5--5--5--5--|

Bridge:

(You, drove me to this...)
D|----------------|-------------|-------------|-------------|-------------|
A|--------------x2|-------------|-------------|-------------|-------------|
F|-8--8-8-x-x-x-x-|-------------|-------------|-------------|-------------|
C|-6--6-6-x-x-x-x-|-9-9-9-9-9-9-|-3-3-3-3-3-3-|-5-5-5-5-5-5-|-5-5-5-5-5-5-|
G|-6--6-6-x-x-x-x-|-9-9-9-9-9-9-|-3-3-3-3-3-3-|-5-5-5-5-5-5-|-5-5-5-5-5-5-|
C|-6--6-6-x-x-x-x-|-9-9-9-9-9-9-|-3-3-3-3-3-3-|-5-5-5-5-5-5-|-5-5-5-5-5-5-|

D|----------------|-------------|-------------|-------------|-------------|
A|--------------x2|-------------|-------------|-------------|-------------|
F|-8--8-8-x-x-x-x-|-------------|-------------|-------------|-------------|
C|-6--6-6-x-x-x-x-|-9-9-9-9-9-9-|-3-3-3-3-3-3-|-5-5-5-5-5-5-|-5-5-5-5-5-5-|
G|-6--6-6-x-x-x-x-|-9-9-9-9-9-9-|-3-3-3-3-3-3-|-5-5-5-5-5-5-|-5-5-5-5-5-5-|
C|-6--6-6-x-x-x-x-|-9-9-9-9-9-9-|-3-3-3-3-3-3-|-5-5-5-5-5-5-|-5-5-5-5-5-5-|

Chorus:

(So bring out the Deathcar...)
D|-------------------|-------------|-------------|-------------------|
A|-------------------|-------------|-------------|-------------------|
F|-7--7--7--7--7--7--|-7-7-7-7-7-7-|-7-7-7-7-7-7-|-7--7--7--7--7--7--|
C|-7--7--7--7--7--7--|-7-7-7-7-7-7-|-5-5-5-5-5-5-|-5--5--5--5--5--5--|
G|-5--5--5--5--5--5--|-5-5-5-5-5-5-|-5-5-5-5-5-5-|-5--5--5--5--5--5--|
C|-------------------|-------------|-5-5-5-5-5-5-|-5--5--5--5--5--5--|

D|-------------------|-------------|-------------|-------------------|
A|-------------------|-------------|-------------|-------------------|
F|-7--7--7--7--7--7--|-7-7-7-7-7-7-|-7-7-7-7-7-7-|-7--7--7--7--7--7--|
C|-7--7--7--7--7--7--|-7-7-7-7-7-7-|-5-5-5-5-5-5-|-5--5--5--5--5--5--|
G|-5--5--5--5--5--5--|-5-5-5-5-5-5-|-5-5-5-5-5-5-|-5--5--5--5--5--5--|
C|-------------------|-------------|-5-5-5-5-5-5-|-5--5--5--5--5--5--|

D|-----------|----------|
A|-----------|----------|
F|-8---------|-8--------|
C|-8-0-0--0--|-8-0-0--0-|
G|-6-0-0--0--|-6-0-0--0-|
C|---0-0--0--|---0-0--0-|

D|-------------------|-------------|-------------|-------------------|
A|-------------------|-------------|-------------|-------------------|
F|-7--7--7--7--7--7--|-7-7-7-7-7-7-|-7-7-7-7-7-7-|-7--7--7--7--7--7--|
C|-7--7--7--7--7--7--|-7-7-7-7-7-7-|-5-5-5-5-5-5-|-5--5--5--5--5--5--|
G|-5--5--5--5--5--5--|-5-5-5-5-5-5-|-5-5-5-5-5-5-|-5--5--5--5--5--5--|
C|-------------------|-------------|-5-5-5-5-5-5-|-5--5--5--5--5--5--|

D|-------------------|-------------|-------------|-------------------|
A|-------------------|-------------|-------------|-------------------|
F|-7--7--7--7--7--7--|-7-7-7-7-7-7-|-7-7-7-7-7-7-|-7--7--7--7--7--7--|
C|-7--7--7--7--7--7--|-7-7-7-7-7-7-|-5-5-5-5-5-5-|-5--5--5--5--5--5--|
G|-5--5--5--5--5--5--|-5-5-5-5-5-5-|-5-5-5-5-5-5-|-5--5--5--5--5--5--|
C|-------------------|-------------|-5-5-5-5-5-5-|-5--5--5--5--5--5--|

D|-----------|-------------|
A|-----------|-------------|
F|-----------|-------------|
C|-5-0-0-0-0-|-0-0-0-5-0-0-| Till it finishes...
F|-5-0-0-0-0-|-0-0-0-5-0-0-|
C|-5-0-0-0-0-|-0-0-0-5-0-0-|

Good luck with this tab. It's pretty hard...
Suggest correction
What's this?
You can suggest a correction to this tab. Community and Mods will review your correction and vote to approve or reject it.
comments
print report bad tab
3 comments total.
0 reply
schecter006 1,061 wrote on October 10 2007, 12:11 pm

i thought the outro was

D|-------------|-------------|
A|-------------|-------------|
F|-------------|-------------|
C|-0-0-0-3-2-0-|-0-0-0-3-2-0-|
F|-0-0-0-3-2-0-|-0-0-0-3-2-0-|
C|-0-0-0-3-2-0-|-0-0-0-3-2-0-|

0 reply
19371 1,391 wrote on October 10 2007, 12:27 pm

Oh yeah. It might be...

0 reply
xKnifekillerx 1,684 wrote on November 27 2008, 08:11 pm

lmao not bad dude...i guess...but fk it, 5star man.

guest
You may want to rate the tab now too:
select rating
Please do not post tabs as comments. Select "correction" instead!