Oops, an error
Loading. Please wait.

Floods Bass Tab

version 1
version 1

Whole song

Interactive

2,247 views 1 this week
no commentswrite comment
1 2 3 4 5
please rate
add to favorites
launch autoscroll
font size
0
reset
guitar tuner
Autoscroll
slow
fast
+/-
esc
set tempo
stop
Help us to improve Ultimate-Guitar.com Take our survey!
×
Contributor
Difficulty
Tuning
timmyjock 229
novice
D G C F A D
Hey Guys I've tried to find this tab and failed so spent a little while working it out 
you.

Song: Floods
Band: Fightstar

Bass Tabs
Tuning - Drop D
E-mail - bigupyourself13@hotmail.com

Intro

(With Piano)

G---------------------------------|
D-9-9-9-9-9-9-9-9-9-9-9-9-8-8-8-8-|
A---------------------------------|
D---------------------------------|

(With Drums and Guitar)

G---------------------------------------------------------------------|
D---------------------------------------------------------------------|
A---------------------------------------------------------------------|
D-999999999999-8888-5555555555555555-6666666666666666-1-1-1-1-1-1-1-1-|

Verse

G-----------------------------------------|
D-----------------------------------------|
A-----------------------------------------|
D-6~---5~---4~---2~---6~---8~---9~---2~---|

Pre Chorus

G-------------------------|
D-------------------------|
A---------4-6--2-1--------|
D-6~----4----2----1~------|

Chorus (same as distorted intro)

G---------------------------------------------------------------------|
D---------------------------------------------------------------------|
A---------------------------------------------------------------------|  X2
D-999999999999-8888-5555555555555555-6666666666666666-1-1-1-1-1-1-1-1-|

Verse Riff

Pre Chorus Riff

Chorus Riff X2
At the end of the chorus play

G-----|
D-----|
A-----|
D-1~--|

Bridge

(With Piano)

G------------------|
D------------------|
A------------------|
D-6~--5~--6~--3~---|

(With Drums and Vocals)

G------------------------------------------------------------------|
D------------------------------------------------------------------|
A------------------------------------------------------------------|
D-6666666666666666-5555555555555555-666666666666666-9-999999999999-|

Chorus Riff X2
At the end of the chorus play

G-----
D-----
A-----
D-6~--

That's it really hope it sounds good for you guys rate comment etc cheers
The lyrics are available here as well

Lyrics

You can't all pretend
That you don't know enough
Enough to make sense
All this will be gone
And you can sink beneath
The rapture we've spawned

What have we become

You know we don't have all the time in the world
To make the floods seem still
You know we don't have all the time in the world
To make the most of this

Blood will bleed the blind
When the only thing diseased their lives
Let not the sun go down
On the wrath of this inconvenient truth

What have we become

You know we don't have all the time in the world
To make the floods seem still
You know we don't have all the time in the world
To make the most of this

Just smile like the idiots you are

You know we don't have all the time in the world
To make the floods keep still
You know we don't have all the time in the world
To make the most of this
comments
We did not receive enough feedback on this tab! Please rate:
print report bad tab
1 2 3 4 5
I want to post or [tab]
guest
You may want to rate the tab now too:
select rating
Please do not post tabs as comments. Select "correction" instead!