Oops, an error
Loading. Please wait.

Floods Tab

version 1
version 1

Intro

Whole song

Interactive

3,036 views 1 this week
2 commentsread comments
1 2 3 4 5
1 last vote to show rating
add to favorites
launch autoscroll
font size
0
reset
how to read this tab
guitar tuner
Autoscroll
slow
fast
+/-
esc
set tempo
stop
Help us to improve Ultimate-Guitar.com Take our survey!
×
Author
Difficulty
novice
E -----------2--------------2--------------2--------------2----------|
B -------4------4------4------4-------4-------4------4------4--------|
G ---4-------------4--------------4---------------4------------------|
D -------------------------------------------------------------------|
A -------------------------------------------------------------------|
E -------------------------------------------------------------------|


E --------3----------3--------3---------3----------------------------|
B -----4----4----4----4---4----4----4----4---------------------------|
G --4---------4---------4---------4----------------------------------|
D -------------------------------------------------------------------|
A -------------------------------------------------------------------|
E -------------------------------------------------------------------|


E ---------4-----------4----------4-----------4-----------------------|
B -----4-----4-----4----4-----4-----4-----4----4----------------------|
G --4-----------4----------4-----------4------------------------------|
D --------------------------------------------------------------------|
A --------------------------------------------------------------------|
E --------------------------------------------------------------------|

E ---------3-----------3---------3----------3-------------------------|
B -----4-----4-----4----4----4-----4----4-----4-----------------------|
G --3-----------3----------3----------3-------------------------------|
D --------------------------------------------------------------------|
A --------------------------------------------------------------------|
E --------------------------------------------------------------------|
Suggest correction
Give kudos to tab author, rate the tab!
1 2 3 4 5
comments
print report bad tab
2 comments total.
0 reply
stevielash 10 Oct 25, 2008 05:21 PM

Sounds perfect to me good job, piano wise i think this is based around a b minor sequence or something =/

0 reply
joshmeister1 10 Apr 05, 2009 09:05 AM

nice, this is also what you play for the chorus aswell.

guest
You may want to rate the tab now too:
select rating
Wanna post a correction for this tab? Suggest correction