Oops, an error
Loading. Please wait.

Floods Bass Tab

version 2
version 2

Whole song

Interactive

1,324 views 1 this week
1 commentread comment
1 2 3 4 5
3 more votes to show rating
add to favorites
launch autoscroll
font size
0
reset
guitar tuner
Autoscroll
slow
fast
+/-
esc
set tempo
stop
Help us to improve Ultimate-Guitar.com Take our survey!
×
Author
Difficulty
Tuning
novice
D G C F A D
Tabbed By SCOTTSMYTH

This is my first ever tab sorry , if its not 2 ur standards

Intro
G|------------------------------|
D|------------------------------|
A|--2~--1~----------------------|
D|--------5~-----6~-----1~------|

Verse

G|------------------------------|
D|------------------------------|
A|------------------------------|
D|--6~----13~-----9~-----2~-----|

Chorus

G|------------------------------|
D|------------------------------|
A|--2~--1~10~-----11~----6~-----|
D|------------------------------|
Suggest correction
Give kudos to tab author, rate the tab!
1 2 3 4 5
comments
print report bad tab
1 comment total.
0 reply
frankibo 1,386 Mar 31, 2008 10:36 AM

sorry mate but its wrong, like the notes are right but thats not whats being played. The other tabs are better. listen more closely next time to get the right rhythm and stuff

guest
You may want to rate the tab now too:
select rating
Wanna post a correction for this tab? Suggest correction