Oops, an error
Loading. Please wait.

Floods Tab

version 2
version 2

Whole song

Interactive

9,467 views 3 this week
8 commentsread comments
1 2 3 4 5
x 8
add to favorites
launch autoscroll
font size
0
reset
how to read this tab
guitar tuner
Autoscroll
slow
fast
+/-
esc
set tempo
stop
Help us to improve Ultimate-Guitar.com Take our survey!
×
Author
Difficulty
intermediate
Hello guys. This is my Piano tab transcribed for guitar, for the song Floods by 
I hope you like it...

Band - Fightstar
Song - Floods
Album - One Day Son, This Will All Be Yours
Release - It's the next single, but unknown...
Tabbed By - Benji James
Additional Comments - Good luck and have fun with this. I find the picking is quite 
Please rate this and leave comments. Thank You.

Intro:

e|-----------------|-----------------|-----------------|-----------------|
B|-----7-------7---|-----7-------7---|-----8-------8---|-----8-------8---|
G|---8---8---8---8-|---8---8---8---8-|---8---8---8---8-|---8---8---8---8-|
D|-9-------9-------|-9-------9-------|-9-------9-------|-9-------9-------|
A|-----------------|-----------------|-----------------|-----------------|
E|-----------------|-----------------|-----------------|-----------------|

e|-----------------|-----------------|-------------------|-------------------|
B|-----9-------9---|-----9-------9---|-11---8---11---8---|-11---8---11---8---|
G|---8---8---8---8-|---8---8---8---8-|----8---8----8---8-|----8---8----8---8-|
D|-9-------9-------|-9-------9-------|-------------------|-------------------|
A|-----------------|-----------------|-------------------|-------------------|
E|-----------------|-----------------|-------------------|-------------------|

Do that twice while the heavy bit is going on...

VERSE:

e|---------------|---------------|---------------|---------------|
B|---------------|---------------|---------------|---------------|
G|-----8-9-8-----|-----8-9-8-----|-----8-9-8-----|-----8-9-8-----|
D|-9-9-------9-9-|-8-8-------8-8-|-7-7-------7-7-|-6-6-------6-6-|
A|---------------|---------------|---------------|---------------|
E|---------------|---------------|---------------|---------------|

e|---------------|---------------|---------------|---------------|
B|---------------|---------------|---------------|---------------|
G|-----8-9-8-----|-----8-9-8-----|-----8-9-8-----|-----8-9-8-----|
D|-9-9-------9-9-|-8-8-------8-8-|-7-7-------7-7-|-6-6-------6-6-|
A|---------------|---------------|---------------|---------------|
E|---------------|---------------|---------------|---------------|


e|----|--------------------|---------------|------|---------|----------|
B|-5--|-5-7-9-11-12-11-9-7_|_[LET-RING]-12-|-11-9-|-12-11-9-|----7-----|
G|----|--------------------|---------------|------|---------|----------|
D|----|--------------------|---------------|------|---------|----------|
A|----|--------------------|---------------|------|---------|----------|
E|----|--------------------|---------------|------|---------|----------|

CHORUS

e|-----------------|-----------------|-----------------|-----------------|
B|-----7-------7---|-----7-------7---|-----8-------8---|-----8-------8---|
G|---8---8---8---8-|---8---8---8---8-|---8---8---8---8-|---8---8---8---8-|
D|-9-------9-------|-9-------9-------|-9-------9-------|-9-------9-------|
A|-----------------|-----------------|-----------------|-----------------|
E|-----------------|-----------------|-----------------|-----------------|

e|-----------------|-----------------|-------------------|-------------------|
B|-----9-------9---|-----9-------9---|-11---8---11---8---|-11---8---11---8---|
G|---8---8---8---8-|---8---8---8---8-|----8---8----8---8-|----8---8----8---8-|
D|-9-------9-------|-9-------9-------|-------------------|-------------------|
A|-----------------|-----------------|-------------------|-------------------|
E|-----------------|-----------------|-------------------|-------------------|

Until End

VERSE:

e|---------------|---------------|---------------|---------------|
B|---------------|---------------|---------------|---------------|
G|-----8-9-8-----|-----8-9-8-----|-----8-9-8-----|-----8-9-8-----|
D|-9-9-------9-9-|-8-8-------8-8-|-7-7-------7-7-|-6-6-------6-6-|
A|---------------|---------------|---------------|---------------|
E|---------------|---------------|---------------|---------------|

e|---------------|---------------|---------------|---------------|
B|---------------|---------------|---------------|---------------|
G|-----8-9-8-----|-----8-9-8-----|-----8-9-8-----|-----8-9-8-----|
D|-9-9-------9-9-|-8-8-------8-8-|-7-7-------7-7-|-6-6-------6-6-|
A|---------------|---------------|---------------|---------------|
E|---------------|---------------|---------------|---------------|


e|----|--------------------|---------------|------|---------|----------|
B|-5--|-5-7-9-11-12-11-9-7_|_[LET-RING]-12-|-11-9-|-12-11-9-|----7-----|
G|----|--------------------|---------------|------|---------|----------|
D|----|--------------------|---------------|------|---------|----------|
A|----|--------------------|---------------|------|---------|----------|
E|----|--------------------|---------------|------|---------|----------|

CHORUS

e|-----------------|-----------------|-----------------|-----------------|
B|-----7-------7---|-----7-------7---|-----8-------8---|-----8-------8---|
G|---8---8---8---8-|---8---8---8---8-|---8---8---8---8-|---8---8---8---8-|
D|-9-------9-------|-9-------9-------|-9-------9-------|-9-------9-------|
A|-----------------|-----------------|-----------------|-----------------|
E|-----------------|-----------------|-----------------|-----------------|

e|-----------------|-----------------|-------------------|-------------------|
B|-----9-------9---|-----9-------9---|-11---8---11---8---|-11---8---11---8---|
G|---8---8---8---8-|---8---8---8---8-|----8---8----8---8-|----8---8----8---8-|
D|-9-------9-------|-9-------9-------|-------------------|-------------------|
A|-----------------|-----------------|-------------------|-------------------|
E|-----------------|-----------------|-------------------|-------------------|

BRIDGE:

e|-15-12----15-12----15-12-|----15-12----15-12-----|
B|-------13-------13-------|-13-------13-------13--|
G|-------------------------|-----------------------|
D|-------------------------|-----------------------|
A|-------------------------|-----------------------|
E|-------------------------|-----------------------|

e|-15-12----15-12----15-12-|----15-12----15-16-15-12-|
B|-------13-------13-------|-13-------13-------------|
G|-------------------------|-------------------------|
D|-------------------------|-------------------------|
A|-------------------------|-------------------------|
E|-------------------------|-------------------------|

(Just Smile, like the idiot you are...)
e|-----------------|-----------------|-----------------|
B|-7-----7-----7---|---7-----7-----7-|-----7-----7-----|
G|---8-----8-----8-|-----8-----8-----|-8-----8-----8---|
D|-----9-----9-----|-9-----9-----9---|---9-----9-----9-| Until that finishes.
A|-----------------|-----------------|-----------------|
E|-----------------|-----------------|-----------------|

[Fade In Here]
e|-----------------|-------------|
B|-7-7-7-7-7-7-7-7-|-7-7-7-7-7---|
G|-8-8-8-8-8-8-8-8-|-8-8-8-8-8---|
D|-9-9-9-9-9-9-9-9-|-9-9-9-9-9---|
A|-----------------|-------------|
E|-----------------|-------------|

CHORUS:

e|-----------------|-----------------|-----------------|-----------------|
B|-----7-------7---|-----7-------7---|-----8-------8---|-----8-------8---|
G|---8---8---8---8-|---8---8---8---8-|---8---8---8---8-|---8---8---8---8-|
D|-9-------9-------|-9-------9-------|-9-------9-------|-9-------9-------|
A|-----------------|-----------------|-----------------|-----------------|
E|-----------------|-----------------|-----------------|-----------------|

e|-----------------|-----------------|-------------------|-------------------|
B|-----9-------9---|-----9-------9---|-11---8---11---8---|-11---8---11---8---|
G|---8---8---8---8-|---8---8---8---8-|----8---8----8---8-|----8---8----8---8-|
D|-9-------9-------|-9-------9-------|-------------------|-------------------|
A|-----------------|-----------------|-------------------|-------------------|
E|-----------------|-----------------|-------------------|-------------------|

ENDING:

e|--------------------|---------------|------|---------|----------|
B|-5-7-9-11-12-11-9-7_|_[LET-RING]-12-|-11-9-|-12-11-9-|----7-----|
G|--------------------|---------------|------|---------|----------|
D|--------------------|---------------|------|---------|----------|
A|--------------------|---------------|------|---------|----------|
E|--------------------|---------------|------|---------|----------|

And that is it. I hope you enjoyed it... Again, please rate this and leave comments...
Suggest correction
comments
print report bad tab
8 comments total. Showing first comments.
0 reply
angel591210 10 Feb 19, 2008 08:30 AM

Spot On =) Im glad some1 put a tab up for this !

0 reply
joshmeister1 10 Apr 07, 2009 12:00 PM

Just one thing, the verse, it should go
0 4 5 4 0 0
1 1
And then keep moving the bottom note down a semitone

0 reply
joshmeister1 10 Apr 07, 2009 12:03 PM

that came out wong, sorry bout that.
ill try again
e
b 04540 0
g1 1

e

guest
You may want to rate the tab now too:
select rating
Wanna post a correction for this tab? Suggest correction