Oops, an error
Loading. Please wait.

Grand Unification Part 1 Bass Tab

version 1
version 1

Whole song

Interactive

1,614 views 3 this week
1 commentread comment
1 2 3 4 5
accurate
x 4
add to favorites
launch autoscroll
font size
0
reset
guitar tuner
Tab Pro tools
  • play this tab
  • loop segment
  • change instrument
  • show fretboard
  • metronome
×
Best way to learn
"Grand Unification Part 1"
Autoscroll
slow
fast
+/-
esc
set tempo
stop
Contributor
Tuning
C G C F A D
there is quite a few fills that i ahvent tabbed, but they are unimportant, and to tab
them accuratley would be quite hard. Showing just how amazing Dan Haigh is.


D tuning with a Drop C
low to high
D tuning - D/G/C/F
with drop C - C/G/C/F

/ - Slide Up
\ - Slide Down
h - Hammer-On
~ - Let Ring
(n) - how many times note is played

Intro
F|------------------------------------------------------------|
C|------------------------------------------------------------|
G|------------------------------------------------------------|
C|-3/7-0-0---0-0---0-0---0-0---0-0--8\3-3---3-3---3-3---3-3-3-|

F|-------------------|
C|-------------------|
G|-------------------|
C|-7-(16x)--8-(16x)--|

Verse
F|---------------------------------------------------------------------|
C|--------------------------------------------10-----------10-------10-|
G|----------------------13-12-11-10------------------------------------|
C|-0-0--0-12-0-0--0-12--------------10-10--10----10-10--10----10-10----|

F|----------------------------------|
C|----------------------------------|
G|------------------8-7-6-5-5-6-7-8-|
C|-8-(16x)--5-(8x)------------------|

F|---------------------------------------------------------------------|
C|--------------------------------------------10-----------10-------10-|
G|----------------------13-12-11-10------------------------------------|
C|-0-0--0-12-0-0--0-12--------------10-10--10----10-10--10----10-10----|

F|--------------------------|
C|--------------------------|
G|--------------------------|
C|-8-(16x)--5-(8x)--8-(8x)--|

Pre-Chorus
F|----------------------------|
C|----------------------------|
G|----------------------------|
C|-0h3/7-0-(16x)--8\3-3-(16x)-|

F|--------------------------------------------------|
C|---------10-----10---------10-----10--------------|
G|----------------------------------------5-(8x)--3-|
C|-8-8-8-8----8-8----8-8-8-8----8-8-----------------|

Chorus
F|-------------------------------------|
C|-------------------------------------|
G|-------------------------------------|
C|-8-(32x)--0-(32x)--8-(x24)--10-(8x)--|

Verse
F|---------------------------------------------------------------------|
C|--------------------------------------------10-----------10-------10-|
G|----------------------13-12-11-10------------------------------------|
C|-0-0--0-12-0-0--0-12--------------10-10--10----10-10--10----10-10----|

F|----------------------------------|
C|----------------------------------|
G|------------------8-7-6-5-5-6-7-8-|
C|-8-(16x)--5-(8x)------------------|

F|---------------------------------------------------------------------|
C|--------------------------------------------10-----------10-------10-|
G|----------------------13-12-11-10------------------------------------|
C|-0-0--0-12-0-0--0-12--------------10-10--10----10-10--10----10-10----|

F|--------------------------|
C|--------------------------|
G|--------------------------|
C|-8-(16x)--5-(8x)--8-(8x)--|

Pre-Chorus
F|----------------------------|
C|----------------------------|
G|----------------------------|
C|-0h3/7-0-(16x)--8\3-3-(16x)-|

F|--------------------------------------------------|
C|---------10-----10---------10-----10--------------|
G|----------------------------------------5-(8x)--3-|
C|-8-8-8-8----8-8----8-8-8-8----8-8-----------------|

Chorus
F|----------------------------|
C|----------------------------|
G|----------------------------|
C|-8-(32x)--0-(32x)--8-(x32)--|

Pre-Bridge
F|-----------------------------------------------------|
C|-----------------------------------------------------|
G|-----------------------------------------------------|
C|-7-7--7-7--7-7--7-7--7--7--8-8--8-8--8-8--8-8--8--8--|

Bridge
F|------------------------------------|------|
C|---------------Rest-While-----------|------|
G|--------------Guitar-Plays----------|------|
C|------------------------------------|--6/--|

F|---------------------------------|
C|---------------------------------|
G|---------------------------------| (Times 2)
C|-0-1-0-1-0-----1-0-----1-0-6-6-6-|

F|--------------------------------------------------------------|
C|--------------------------------------------------------------|
G|--------------------------------------------------------------|
C|-0-1-0-1-0-0-0-1-0-0-0-1-0-6-6-6-0-1-0-1-0-0-0-1-0-0-0-1-0-6\-|

F|-----------------------------------|
C|-----------------------------------|
G|-----------------------------------| (Times 4)
C|-0-1-0-1-0~-----1-0~-----1-0-6-6-6-|

Bridge 2
F|------------------------------------|
C|------------------------------------|
G|-------------------8-8-8-7-7-7-7\10-| (Times 2)
C|-8-(16x)--12-(8x)-------------------|

F|------------------------------------|
C|------------------------------------|
G|------------------------------------|
C|-8-(16x)--0-(8x)--10-(8x)--8-(16x)--|

Outro
F|-------------------------------------------------------|
C|-------------------------------------------------------|
G|-------------------------------------------------------|
C|-0-(32x)--8-(28x)--12/--3-(x32)--0-(32x)--8-(32x)--0~--|
comments
print report bad tab
1 comment total.
0 reply
METSOAD wrote on April 18 2006, 04:42 pm

This looks great, all the notes in the right places and the right amount of times

I want to post or [tab]
guest
You may want to rate the tab now too:
select rating
Please do not post tabs as comments. Select "correction" instead!