Oops, an error
Loading. Please wait.

Grand Unification Part 1 Bass Tab

version 2
version 2

Whole song

Interactive

398 views 1 this week
no commentswrite comment
1 2 3 4 5
please rate
add to favorites
launch autoscroll
font size
0
reset
guitar tuner
Autoscroll
slow
fast
+/-
esc
set tempo
stop
Help us to improve Ultimate-Guitar.com Take our survey!
×
Contributor
Difficulty
-Mono-- 104
intermediate
----------------------------------------------------------------------------
			Grand Unifiction Pt1 - Fightstar
----------------------------------------------------------------------------

Tabbed By : -Mono-- (Benji)

Tuning: Standard

Intro
G|-------------------------------------------------------------------|
D|-------------------------------------------------------------------|
A|-------------------------------------------------------------------|
E|9-9\0-00-00-00-00-7\3-33-33-33-33-777777777777777788888888888888888|

Verse
G|----------------------------------------------------------------------|
D|----------------------------------------------------------------------|
A|----5----5--5-------10-------10----10\7-----------------------76500567|
E|00-0-00-0-00-1010-10--1010-10--1010----77-77-77-77-777-55-55-5--------|
               (tens)

G|--------------------------------------------------------------|
D|--------------------------------------------------------------|
A|----5----5--5-------10-------10----10\7-----------------------|
E|00-0-00-0-00-1010-10--1010-10--1010----77-77-77-77-777-55-55-5|
               (tens)

Pre-Chorus
G|------------------------------------------------------------|
D|------------------------------------------------------------|
A|-------------------------------------77777777777777555555553|
E|9\0-00000000000000-7\3-3333333333333------------------------|

Chorus
G|------------------------------------------------------------|
D|------------------------------------------------------------|
A|------------------------------------------------------------|
E|888888888888888888888888888888880000000000000000000000000000|

G|-------------------------------------------|
D|-------------------------------------------|
A|-------------------------------------------|
E|88888888888888888888888888888888/1212121212|
                                   (twelves)

Verse
G|----------------------------------------------------------------------|
D|----------------------------------------------------------------------|
A|----5----5--5-------10-------10----10\7-----------------------76500567|
E|00-0-00-0-00-1010-10--1010-10--1010----77-77-77-77-777-55-55-5--------|
               (tens)

G|--------------------------------------------------------------|
D|--------------------------------------------------------------|
A|----5----5--5-------10-------10----10\7-----------------------|
E|00-0-00-0-00-1010-10--1010-10--1010----77-77-77-77-777-55-55-5|
               (tens)

Pre-Chorus
G|------------------------------------------------------------|
D|------------------------------------------------------------|
A|-------------------------------------77777777777777555555553|
E|9\0-00000000000000-7\3-3333333333333------------------------|

Chorus
G|------------------------------------------------------------|
D|------------------------------------------------------------|
A|------------------------------------------------------------|
E|888888888888888888888888888888880000000000000000000000000000|

G|------------------------------------------------------------------|
D|------------------------------------------------------------------|
A|------------------------------------------------------------------|
E|88888888888888888888888888888888-77-77-77-77-77-7-88-88-88-88-88-8|
                                  (different ending this time round)

Bridge (after a quick short break while just guitar palm mutes)
G|-----------------------------------------|
D|-----------------------------------------|
A|-----------------------------------------|
E|9\0-0-1-0-1-0-10-0-666-0-1-0-1-0-10-0-666| <-- These "10's" are "one, open, one, open" 
same for the rest of the bridge.

This time no gaps and palm muted
G|-----------------------------------------|
D|-----------------------------------------|
A|-----------------------------------------|
E|000000000000000-666-000000000000000000000|
  xxxxxxxxxxxxxxx xxx xxxxxxxxxxxxxxxxxxxxx

G|-------------------------------------|
D|-------------------------------------|
A|-------------------------------------|
E|0-1-0-1-0-10-0-666-0-1-0-1-0-10-0-666|

G|------------------------------------|
D|------------------------------------|
A|------------------------------------|
E|00000-0-1-0-10-666-000000-1-0-10-666|
  xxxxx              xxxxxx

After Brigde
G|--------------------------------------|
D|--------------------------------------|
A|--------------------------------------|
E|00000000000000008888888812121288888888| <--- those are twelves

G|--------------------------------------|
D|--------------------------------------|
A|--------------------------------------|
E|00000000000000008888888812121288888888|

G|------------------------------------------------|
D|------------------------------------------------|
A|------------------------------------------------|
E|000000000000000088888888555555550000000000000000|

Final Chorus (different to the first two)
G|------------------------------------------------------------|
D|------------------------------------------------------------|
A|------------------------------------------------------------|
E|888888888888888888888888888888888888888888888888888888888888|

G|---------------------------------------------|
D|---------------------------------------------|
A|---------------------------------------------|
E|8888888888888888888888888888888888888888812\3|

G|--------------------------------------------------------------|
D|--------------------------------------------------------------|
A|--------------------------------------------------------------|
E|33333333333333333333333333333355555555555555555555555555555555|

G|---------------------------------------------------------------|
D|---------------------------------------------------------------|
A|---------------------------------------------------------------|
E|888888888888888888888888881212121212121212888888880~ let ring--|

and thats the end, a fairly easy song but pretty quick thoughout.

Thanks

-Benji


| /  slide up
| \  slide down
| h  hammer-on
| p  pull-off
| ~  vibrato
| +  harmonic
| x  Mute note
============================================================================
Suggest correction What's this?
You can suggest a correction to this tab. Community and Mods will review your correction and vote to approve or reject it.
comments
We did not receive enough feedback on this tab! Please rate:
print report bad tab
1 2 3 4 5
I want to post or [tab]
guest
You may want to rate the tab now too:
select rating
Please do not post tabs as comments. Select "correction" instead!