Oops, an error
Loading. Please wait.

Hazy Eyes bass

version 2
version 2

Whole song

Interactive

406 views 1 this week
no commentswrite comment
1 2 3 4 5
2 more votes to show rating
add to favorites
×
Save as Personal and add changes to this tab that will be seen only by you. Learn more ›
×
You can save this tab as Personal to edit and correct it or add notes. All changes will be seen only by you. Learn more »
launch autoscroll
font size
0
reset
guitar tuner
backing track
0:00
0:00
edit
Autoscroll
slow
fast
+/-
esc
set tempo
stop
=========================
= Fightstar - Hazy Eyes =
=========================
Drop D tuning!

Possibily the best song on the album by far! next to be realised after the album realise 
by charlie himself to myself at a gig in bristol! LOL!

I have done this so it is really easy to run through for
everyone at any bass playin standards but its an easy song!

Intro and Bridge and Outro

G-----------------------------------------     -----|
D-----------------------------------------     -----|
A-----------------------------------------(x2) -----|
D-0-0----0-0----0-0----0-0----7-7----5-5--     -0~--|

Verse

G------------------------------------------|
D------------------------------------------|
A------------------------------------------|
D-0~---0~---5~---5~---0~---0~--777-5~---5~-|

G---------------------|
D---------------------|
A---------------------|
D-0~---0~---5~---5~---|
   "You smash my heart with your words, (It wont break, It wont break)"

G---------------------|
D---------------------|
A---------------------|
D-0~---0~-777-5~---5~-|
   "This anaesthetic wont work, (It just hurts me)"

G-----------------------------------------|
D-----------------------------------------|
A-----------------------------------------|
D-9~---9~---5~---5~---9~---9~---5~---5~---|
   "I wish I knew where I came from, I wish I knew where I'd been"

Pre-Chorus

G---------------------------------|
D---------------------------------|
A---------------------------------|
D-12-12-12-12x-----9-9-9-----5c---|
              "I don't....need you"

G---------------------------------|
D---------------------------------|
A---------------------------------|
D-12-12-12-12x-----9-9-9-----5c---|
              "I don't....need you"

Chorus

G------------------------------------------|
D------------------------------------------|
A------------------------------------------|
D-12c--------9c--------7c--------5c--------|
    "The lights are going down, Look at us we're fading out, It's been
                                                     good to have you"

G---------------------------------------------|
D---------------------------------------------|
A---------------------------------------------|
D-12c--------9c---(mute)-7c--------5c---------|
    "The look across your face, (muted part)Distorted, crushed and
                               hazy eyed, Well fuck your white lies"

Bridge

G-------------------------------------------------------|
D-------------------------------------------------------|
A-------------------------------------------------------|
D-0-0-10---0-0-10---0-0-10---0-0-10---7-7----5-5----0~--|

Verse

G---------------------|
D---------------------|
A---------------------|
D-0~---0~---5~---5~---|
   "You pull me back all the time, (I won't wait, I won't wait)"

G---------------------|
D---------------------|
A---------------------|
D-0~---0~-777-5~---5~-|
   "You dragged me down but i'll climb, (I won't fall down)"

G-----------------------------------------|
D-----------------------------------------|
A-----------------------------------------|
D-9~---9~---5~---5~---9~---9~---5~---5~---|
   "I wish I knew where I came from, I wish I knew where I'd been"

Pre-Chorus

G---------------------------------|
D---------------------------------|
A---------------------------------|
D-12-12-12-12x-----9-9-9-----5c---|
              "I don't....need you"

G---------------------------------|
D---------------------------------|
A---------------------------------|
D-12-12-12-12x-----9-9-9-----5c---|
              "I don't....need you"

Chorus

G----------------------|
D----------------------|
A----------------------|
D----------------------|
 "The lights are going down, Look at us we're..."

G----------------------|
D----------------------|
A----------------------|
D--7c--------5c--------|
  "fading out, It's been good to have you

G---------------------------------------------|
D---------------------------------------------|
A---------------------------------------------|
D-12c--------9c---(mute)-7c--------5c---------|
    "The look across your face, (muted part)Distorted, crushed and
                               hazy eyed, Well fuck your white lies"

Interlude

G----------------------------------------------------------|
D----------------------------------------------------------|
A----------------------------------------------------------|
D-2c----5c-----12--12-12--12--9--7----12--12-12--12--9--7--|
     "Look away... and I'll be..."

G-----------------------------------------------------------------------|
D-----------------------------------------------------------------------|
A-----------------------------------------------------------------------|
D-2c----5c----12-12-12-12----12-12-12-12----12-12-12-12----12-12-12-12--|
     "And I'll be there... in front..."

G-----------------|
D-----------------|
A-----------------|
D-5-4-2~----4-5~--|

Outro

G------------------------------------------------------|
D------------------------------------------------------|
A------------------------------------------------------|
D-0-0-10---0-0-10---0-0-10---0-0-10---7-7----5-5----0x-|

            
            
Suggest correction
Creating personal tab
Creating personal tab
You can edit any tab online and save it as your Personal.

You can edit, replace or remove any tab part or add personal notes – all changes will be seen only by you.

Personal tabs can be accessed anytime from any device, even offline.
Learn more »
Give kudos to tab author, rate the tab!
1 2 3 4 5
comments
print report bad tab
guest
You may want to rate the tab now too:
select rating
Wanna post a correction for this tab? Suggest correction