Oops, an error
Loading. Please wait.

Here Again bass

version 1
version 1

Whole song

Interactive

802 views 3 this week
no commentswrite comment
1 2 3 4 5
3 more votes to show rating
add to favorites
×
Save as Personal and add changes to this tab that will be seen only by you. Learn more ›
×
You can save this tab as Personal to edit and correct it or add notes. All changes will be seen only by you. Learn more »
launch autoscroll
font size
0
reset
guitar tuner
edit
Autoscroll
slow
fast
+/-
esc
set tempo
stop
Drop C#

|-----|
|-----|
|-----|
|-----|


|-----4-------2-------4-------2---------12----------11----------12----------11\----|
|----------------------------------------------------------------------------------|
|-2-2---2-2-2---2-2-2---2-2-2---2S10-10----10-10-10----10-10-10----10-10-10--------|
|----------------------------------------------------------------------------------|


|--------------------------------------------------------------------|
|-----9-------7-------9-------7--------------------------------------|
|--------------------------------------------------------------------|
|-7-7---7-7-7---7-7-7---7-7-7---7-9-9-9-9-9-9-9-9-5-5-5-5-5-5-5-5----|


|-----4-------2---|-----4-------2---|
|-----------------|-----------------|
|-2-2---2-2-2---2-|-2-2---2-2-2---2S|
|-----------------|-----------------|


|-------12----------11----|-------12----------11\--|
|-------------------------|------------------------|
|-10-10----10-10-10----10-|-10-10----10-10-10------|
|-------------------------|------------------------|


|-----------------|-----------------|-----------------|-----------------|
|-----9-------7---|-----9-------7---|-----------------|-----------------|
|-----------------|-----------------|-----------------|-----------------|
|-7-7---7-7-7---7-|-7-7---7-7-7---7-|-9-9-9-9-9-9-9-9-|-5-5-5-5-5-5-5-5-|


|-----4-------2---|-----4-------2---|
|-----------------|-----------------|
|-2-2---2-2-2---2-|-2-2---2-2-2---2S|
|-----------------|-----------------|


|-------12----------11----|-------12----------11\--|
|-------------------------|------------------------|
|-10-10----10-10-10----10-|-10-10----10-10-10------|
|-------------------------|------------------------|


|-----------------|-----------------|-----------------|-----------------|
|-----9-------7---|-----9-------7---|-----------------|-----------------|
|-----------------|-----------------|-----------------|-----------------|
|-7-7---7-7-7---7-|-7-7---7-7-7---7-|-9-9-9-9-9-9-9-9-|-5-5-5-5-5-5-5-5-|


|---------------|---------------|---------------|---------------|
|---------------|---------------|---------------|---------------|
|---------------|---------------|---------------|---------------|
|-9-9-9--9-9-9--|-9-9-9--9-9-9--|-5-5-5--5-5-5--|-5-5-5--5-5-5--|


|---------------|---------------|-----------|-----------|
|---------------|---------------|-----------|-----------|
|---------------|---------------|-----------|-----------|
|-7-7-7--7-7-7--|-7-7-7--7-7-7--|-2----2----|-2----2----|


|---------------|---------------|---------------|---------------|
|---------------|---------------|---------------|---------------|
|---------------|---------------|---------------|---------------|
|-9-9-9--9-9-9--|-9-9-9--9-9-9--|-5-5-5--5-5-5--|-5-5-5--5-5-5--|


|---------------|---------------|-----------|-----------|
|---------------|---------------|-----------|-----------|
|---------------|---------------|-----------|-----------|
|-7-7-7--7-7-7--|-7-7-7--7-7-7--|-2----2----|-2----2----|


|-----4-------2---|-----4-------2---|
|-----------------|-----------------|
|-2-2---2-2-2---2-|-2-2---2-2-2---2S|
|-----------------|-----------------|


|-------12----------11----|-------12----------11\--|
|-------------------------|------------------------|
|-10-10----10-10-10----10-|-10-10----10-10-10------|
|-------------------------|------------------------|


|-----------------|-----------------|-----------------|-----------------|
|-----9-------7---|-----9-------7---|-----------------|-----------------|
|-----------------|-----------------|-----------------|-----------------|
|-7-7---7-7-7---7-|-7-7---7-7-7---7-|-9-9-9-9-9-9-9-9-|-5-5-5-5-5-5-5-5-|


|-----4-------2---|-----4-------2---|
|-----------------|-----------------|
|-2-2---2-2-2---2-|-2-2---2-2-2---2S|
|-----------------|-----------------|


|-------12----------11----|-------12----------11\--|
|-------------------------|------------------------|
|-10-10----10-10-10----10-|-10-10----10-10-10------|
|-------------------------|------------------------|


|-----------------|-----------------|-------------|-------------|
|-----9-------7---|-----9-------7---|-------------|-------------|
|-----------------|-----------------|-------------|-------------|
|-7-7---7-7-7---7-|-7-7---7-7-7---7-|-2-2---5-5---|-2-2---7-7---|


|-----------------|-----------------|-----------------|-----------------|
|-----------------|-----------------|-----------------|-----------------|
|-----------------|-----------------|-----------------|-----------------|
|-9-9-9-9-9-9-9-9-|-9-9-9-9-9-9-9-9-|-5-5-5-5-5-5-5-5-|-5-5-5-5-5-5-5-5-|


|-----------------|-----------------|-----------------|-----------------|
|-----------------|-----------------|-----------------|-----------------|
|-----------------|-----------------|-----------------|-----------------|
|-7-7-7-7-7-7-7-7-|-7-7-7-7-7-7-7-7-|-2-2-2-2-2-2-2-2-|-2-2-2-2-2-2-2-2-|


|---------------|---------------|---------------|---------------|
|---------------|---------------|---------------|---------------|
|---------------|---------------|---------------|---------------|
|-9-9-9--9-9-9--|-9-9-9--9-9-9--|-5-5-5--5-5-5--|-5-5-5--5-5-5--|


|---------------|---------------|-----------|-----------|
|---------------|---------------|-----------|-----------|
|---------------|---------------|-----------|-----------|
|-7-7-7--7-7-7--|-7-7-7--7-7-7--|-2----2----|-2----2----|


|-----|
|-----|
|-----|
|-----|


|----------------------------------------------------|
|----------------------------------------------------|
|----------------------------------------------------|
|-9-9---9-9---9-9---9-9---9-9---9-9---9-9---5-5------|


|-------------|-------------|-------------|-------------|
|-------------|-------------|-------------|-------------|
|-------------|-------------|-------------|-------------|
|-9-9---9-9---|-9-9---9-9---|-9-9---9-9---|-9-9---5-5---|


|-------------|-------------|-------------|-------------|
|-------------|-------------|-------------|-------------|
|-------------|-------------|-------------|-------------|
|-2-2---2-2---|-2-2---2-2---|-5-5---5-5---|-5-5---5-5---|


|---------------------------------------------------|
|---------------------------------------------------|
|---------------------------------------------------|
|-9--9--9--9--9--9--9--9--7--7--7--7--7--7--7--7----|


|-------------|-------------|-------------|-------------|
|-------------|-------------|-------------|-------------|
|-------------|-------------|-------------|-------------|
|-2-2---2-2---|-2-2---2-2---|-5-5---5-5---|-5-5---5-5---|


|-------------|--------------|-----------------|-----------------|
|-------------|-------11-----|-----------------|-----------------|
|-------------|--------------|-----------------|-----------------|
|-9--9--9--9--|-9--9------9--|-12--12--12--12--|-12--12--12--12--|


|---------------------------------------------------|
|---------------------------------------------------|
|---------------------------------------------------|
|-5--5--5--5--5--5--5--5--5--5--5--5--5--5--5--5----|


|-----------------|-----------------|-----------------|-----------------|
|-----------------|-----------------|-----------------|-----------------|
|-----------------|-----------------|-----------------|-----------------|
|-0-0-0-0-0-0-0-0-|-0-0-0-0-0-0-0-0-|-5-5-5-5-5-5-5-5-|-5-5-5-5-5-5-5-5-|


|-----------------|-----------------|-----------------|-----------------|
|-----------------|-----------------|-----------------|-----------------|
|-----------------|-----------------|-----------------|-----------------|
|-7-7-7-7-7-7-7-7-|-7-7-7-7-7-7-7-7-|-2-2-2-2-2-2-2-2-|-2-2-2-2-2-2-2-2-|


|-----------------|-----------------|-----------------|-----------------|
|-----------------|-----------------|-----------------|-----------------|
|-----------------|-----------------|-----------------|-----------------|
|-0-0-0-0-0-0-0-0-|-0-0-0-0-0-0-0-0-|-5-5-5-5-5-5-5-5-|-5-5-5-5-5-5-5-5-|


|-----------------|-----------------|-----------------|-----------------|
|-----------------|-----------------|-----------------|-----------------|
|-----------------|-----------------|-----------------|-----------------|
|-7-7-7-7-7-7-7-7-|-7-7-7-7-7-7-7-7-|-2-2-2-2-2-2-2-2-|-2-2-2-2-2-2-2-2-|


|---------------|---------------|---------------|---------------|
|---------------|---------------|---------------|---------------|
|---------------|---------------|---------------|---------------|
|-9-9-9--9-9-9--|-9-9-9--9-9-9--|-5-5-5--5-5-5--|-5-5-5--5-5-5--|


|---------------|---------------|-----------|-----------|
|---------------|---------------|-----------|-----------|
|---------------|---------------|-----------|-----------|
|-7-7-7--7-7-7--|-7-7-7--7-7-7--|-2----2----|-2----2----|


|-----------------|-----------------|-----------------|-----------------|
|-----------------|-----------------|-----------------|-----------------|
|-----------------|-----------------|-----------------|-----------------|
|-0-0-0-0-0-0-0-0-|-0-0-0-0-0-0-0-0-|-5-5-5-5-5-5-5-5-|-5-5-5-5-5-5-5-5-|


|-----------------|-----------------|-----------------|-----------------|
|-----------------|-----------------|-----------------|-----------------|
|-----------------|-----------------|-----------------|-----------------|
|-7-7-7-7-7-7-7-7-|-7-7-7-7-7-7-7-7-|-2-2-2-2-2-2-2-2-|-2-2-2-2-2-2-2-2-|


|-----------------|
|-----------------|
|-----------------|
|-5--------(5)----|

            
            
Suggest correction
Creating personal tab
Creating personal tab
You can edit any tab online and save it as your Personal.

You can edit, replace or remove any tab part or add personal notes – all changes will be seen only by you.

Personal tabs can be accessed anytime from any device, even offline.
Learn more »
Give kudos to tab author, rate the tab!
1 2 3 4 5
comments
print report bad tab
guest
You may want to rate the tab now too:
select rating
Wanna post a correction for this tab? Suggest correction