Oops, an error
Loading. Please wait.

Here Again Tab

version 1
version 1

Whole song

Interactive

2,711 views 1 this week
4 commentsread comments
1 2 3 4 5
1 last vote to show rating
add to favorites
launch autoscroll
font size
0
reset
how to read this tab
guitar tuner
Autoscroll
slow
fast
+/-
esc
set tempo
stop
Help us to improve Ultimate-Guitar.com Take our survey!
×
Author
Difficulty
Tuning
novice
C# G# C# F# A# D#
-------------------------------------------------------------------------------
                             Here Again - Fightstar
-------------------------------------------------------------------------------
Tabbed by: Ciaran Plummer
Email: just_ciaran@hotmail.co.uk

Tuning: drop C#

<>

Intro (Times 2)
D#|----------------------------------------------------------|
A#|-------0-------------0-------------14------------14-------|
F#|----------------------------------------------------------|
C#|---4-----4---4---4-----4---4---12----12--12--12----12--12-|
G#|-2---2-----2---2---2-----2---14--14----14--14--14----14---|
C#|----------------------------------------------------------|

D#|--------------------------------------------------------------|
A#|-------0--------------0-----------------0-------------0-------|
F#|--------------------------------------------------------------|
C#|--------------------------------------------------------------|
G#|---7------7---7---7-----7---7------9------9---9---5-----5---5-|
C#|-7---7------7---7---7-----7------9---9------9---5---5-----5---|

Verse (Times 2)
D#|----------------------------------------------------------|
A#|-------0-------------0-------------14------------14-------|
F#|----------------------------------------------------------|
C#|---4-----4---4---4-----4---4---12----12--12--12----12--12-|
G#|-2---2-----2---2---2-----2---14--14----14--14--14----14---|
C#|----------------------------------------------------------|

D#|--------------------------------------------------------------|
A#|-------0--------------0-----------------0-------------0-------|
F#|--------------------------------------------------------------|
C#|--------------------------------------------------------------|
G#|---7------7---7---7-----7---7------9------9---9---5-----5---5-|
C#|-7---7------7---7---7-----7------9---9------9---5---5-----5---|


Chorus (Times 2)
D#|--------------------------------------|
A#|--------------------------------------|
F#|-11-11-11--7-7-7--9-9-9--4~-4~-4~-4~--|
C#|--9--9--9--5-5-5--7-7-7--2~-2~-2~-2~--|
G#|--9--9--9--5-5-5--7-7-7--2~-2~-2~-2~--|
C#|--9--9--9--5-5-5--7-7-7--2~-2~-2~-2~--|

Verse 
D#|----------------------------------------------------------|
A#|-------0-------------0-------------14------------14-------|
F#|----------------------------------------------------------|
C#|---4-----4---4---4-----4---4---12----12--12--12----12--12-|
G#|-2---2-----2---2---2-----2---14--14----14--14--14----14---|
C#|----------------------------------------------------------|

D#|--------------------------------------------------------------|
A#|-------0--------------0-----------------0-------------0-------|
F#|--------------------------------------------------------------|
C#|--------------------------------------------------------------|
G#|---7------7---7---7-----7---7------9------9---9---5-----5---5-|
C#|-7---7------7---7---7-----7------9---9------9---5---5-----5---|

D#|----------------------------------------------------------|
A#|-------0-------------0-------------14------------14-------|
F#|----------------------------------------------------------|
C#|---4-----4---4---4-----4---4---12----12--12--12----12--12-|
G#|-2---2-----2---2---2-----2---14--14----14--14--14----14---|
C#|----------------------------------------------------------|

D#|---------------------------------------------------------|
A#|-------0-------------0-----------------------------------|
F#|---------------------------------------------------------|
C#|-------------------------------2-2--5-5-5--5-5-5--7-7-7--|
G#|---7-----7---7---7-----7---7---2-2--5-5-5--5-5-5--7-7-7--|
C#|-7---7-----7---7---7-----7-----2-2--5-5-5--5-5-5--7-7-7--|

Chorus 
D#|--------------------------|
A#|--------------------------|
F#|-11c----7c----9c----4c----|
C#|--9c----5c----7c----2c----|
G#|--9c----5c----7c----2c----|
C#|--9c----5c----7c----2c----|

D#|--------------------------------------|
A#|--------------------------------------|
F#|-11-11-11--7-7-7--9-9-9--4~-4~-4~-4~--|
C#|--9--9--9--5-5-5--7-7-7--2~-2~-2~-2~--|
G#|--9--9--9--5-5-5--7-7-7--2~-2~-2~-2~--|
C#|--9--9--9--5-5-5--7-7-7--2~-2~-2~-2~--|

Break
D#|-----------------------------------------|
A#|-----------------------------------------|
F#|-----------------------------------------|
C#|-9-9--9-9--9-9--9-9--9-9--9-9--9-9--9-9--|
G#|-9-9--9-9--9-9--9-9--9-9--9-9--9-9--9-9--|
C#|-9-9--9-9--9-9--9-9--9-9--9-9--9-9--9-9--|
  | . .  . .  . .  . .  . .  . .  . .  . .

(times 2)
D#|---------------------------------------------------------|
A#|---------------------------------------------------------|
F#|-11-11--11-11--11-11--11-11--11-11--11-11--11-11---7--7--|
C#|--9--9---9--9---9--9---9--9---9--9---9--9---9--9---5--5--|
G#|--9--9---9--9---9--9---9--9---9--9---9--9---9--9---5--5--|
C#|--9--9---9--9---9--9---9--9---9--9---9--9---9--9---5--5--|

Bridge
D#|------------------------------------------------------|
A#|------------------------------------------------------|
F#|-------------------------------------11c------9c------|
C#|--2-2------2-2------5-5------5-5------9c------7c------| (Times 2)
G#|--2-2------2-2------5-5------5-5------9c------7c------|
C#|--2-2------2-2------5-5------5-5------9c------7c------|
  |  . .      . .      . .      . .

Pre-Outro
D#|----------------------------------|
A#|----------------------------------|
F#|----------------------------------|
C#|---------------5-5-5-5-5-5-5-5-5--|
G#|-5-5-5-5-5-5-5-5-5-5-5-5-5-5-5-5--|
C#|-5-5-5-5-5-5-5-5-5-5-5-5-5-5-5-5--|
  | . . . . . . . . . . . .
 
Outro
D#|-------------------------------------------------|
A#|-------------------------------------------------|
F#|-2c----7c----9c----4c----2c----7c----9c----4c----|
C#|-0c----5c----7c----2c----0c----5c----7c----2c----|
G#|-0c----5c----7c----2c----0c----5c----7c----2c----|
C#|-0c----5c----7c----2c----0c----5c----7c----2c----|

D#|--------------------------------------|
A#|--------------------------------------|
F#|-11-11-11--7-7-7--9-9-9--4~-4~-4~-4~--|
C#|--9--9--9--5-5-5--7-7-7--2~-2~-2~-2~--|
G#|--9--9--9--5-5-5--7-7-7--2~-2~-2~-2~--|
C#|--9--9--9--5-5-5--7-7-7--2~-2~-2~-2~--|

D#|-----------------------------------------------------------------|
A#|-----------------------------------------------------------------|
F#|-----------------------------------------------------------------|
C#|---------0---------------0---------------5---------------5-------|
G#|---------0---------------0---------------5---------------5-------|
C#|-0-0-0-0-0-0-0-0-0-0-0-0-0-0-0-0-5-5-5-5-5-5-5-5-5-5-5-5-5-5-5-5-|
  | . . . .   . . . . . . .   . . . . . . .   . . . . . . .   . . .

D#|-----------------------------------------------------------------|
A#|-----------------------------------------------------------------|
F#|-----------------------------------------------------------------|
C#|---------7---------------7---------------2---------------2-------|
G#|---------7---------------7---------------2---------------2-------|
C#|-7-7-7-7-7-7-7-7-7-7-7-7-7-7-7-7-2-2-2-2-2-2-2-2-2-2-2-2-2-2-2-2-|
  | . . . .   . . . . . . .   . . . . . . .   . . . . . . .   . . .

D#|------|
A#|------|
F#|--7~--|
C#|--5~--|
G#|--5~--|
C#|--5~--|


**************************************************************************

<>

Intro (Times 2)
|------5----5----5-----------------3-----3------3------------|
|---3----3----3----3-----------3-----3------3------3---------|
|-4---4----4----4----4-------4---4------4-----4------4-------|
|------------------------------------------------------------|
|------------------------------------------------------------|
|------------------------------------------------------------|

|-------2----2----2-----------------3-----3-----3------------|
|---3-----3----3----3-----------3-----3-----3-----3----------|
|-4---4-----4----4----4-------4---4-----4-----4-----4--------|
|------------------------------------------------------------|
|------------------------------------------------------------|
|------------------------------------------------------------|

Verse (Times 2)
|------5----5----5-----------------3-----3------3------------|
|---3----3----3----3-----------3-----3------3------3---------|
|-4---4----4----4----4-------4---4------4-----4------4-------|
|------------------------------------------------------------|
|------------------------------------------------------------|
|------------------------------------------------------------|

|-------2----2----2-----------------3-----3-----3------------|
|---3-----3----3----3-----------3-----3-----3-----3----------|
|-4---4-----4----4----4-------4---4-----4-----4-----4--------|
|------------------------------------------------------------|
|------------------------------------------------------------|
|------------------------------------------------------------|

Chorus (Times 2)
D#|-----------------------------------------|
A#|-----------------------------------------|
F#|-11-11-11--7-7-7--9-9-9------------------|
C#|--9--9--9--5-5-5--7-7-7--2b--2b--2b--2b--|
G#|--9--9--9--5-5-5--7-7-7--2b--2b--2b--2b--|
C#|--9--9--9--5-5-5--7-7-7--2b--2b--2b--2b--|

Verse
|------5----5----5-----------------3-----3------3------------|
|---3----3----3----3-----------3-----3------3------3---------|
|-4---4----4----4----4-------4---4------4-----4------4-------|
|------------------------------------------------------------|
|------------------------------------------------------------|
|------------------------------------------------------------|

|-------2----2----2-----------------3-----3-----3------------|
|---3-----3----3----3-----------3-----3-----3-----3----------|
|-4---4-----4----4----4-------4---4-----4-----4-----4--------|
|------------------------------------------------------------|
|------------------------------------------------------------|
|------------------------------------------------------------|

|------5----5----5-----------------3-----3------3------------|
|---3----3----3----3-----------3-----3------3------3---------|
|-4---4----4----4----4-------4---4------4-----4------4-------|
|------------------------------------------------------------|
|------------------------------------------------------------|
|------------------------------------------------------------|

|------5----5----5--------------------------------------------|
|---3----3----3----3------------------------------------------|
|-4---4----4----4----4----------------------------------------|
|----------------------------2-2-x-x-5-5-x-x-5-5-x-x-7-7-x-x--|
|----------------------------2-2-x-x-5-5-x-x-5-5-x-x-7-7-x-x--|
|----------------------------2-2-x-x-5-5-x-x-5-5-x-x-7-7-x-x--|

Chorus
D#|--------------------------|
A#|--------------------------|
F#|-11c----7c----9c----4c----|
C#|--9c----5c----7c----2c----|
G#|--9c----5c----7c----2c----|
C#|--9c----5c----7c----2c----|

D#|-----------------------------------------|
A#|-----------------------------------------|
F#|-11-11-11--7-7-7--9-9-9------------------|
C#|--9--9--9--5-5-5--7-7-7--2b--2b--2b--2b--|
G#|--9--9--9--5-5-5--7-7-7--2b--2b--2b--2b--|
C#|--9--9--9--5-5-5--7-7-7--2b--2b--2b--2b--|

Break
D#|-----------------|
A#|-----------------|
F#|------REST-------|
C#|-----------------|
G#|-----------------|
C#|-----------------|

(times 2)
D#|---------------------------------------------------------|
A#|---------------------------------------------------------|
F#|-11-11--11-11--11-11--11-11--11-11--11-11--11-11---7--7--|
C#|--9--9---9--9---9--9---9--9---9--9---9--9---9--9---5--5--|
G#|--9--9---9--9---9--9---9--9---9--9---9--9---9--9---5--5--|
C#|--9--9---9--9---9--9---9--9---9--9---9--9---9--9---5--5--|

Bridge (Times 2)
|------------------------------------------------------------------|
|------------------------------------------------------------------|
|------------------------------------------------------------------|
|-----4-2-4-2---------4-2-4-2---------7-5-7-5---------7-5-7-5------|
|-2-2---------4-2-2-2---------4-2-5-5---------7-5-5-5---------7-5--|
|-2-2-------------2-2-------------5-5-------------5-5--------------|
| . .             . .             . .             . .

D#|--------------|
A#|--------------|
F#|-11c----9c----|
C#|--9c----7c----|
G#|--9c----7c----|
C#|--9c----7c----|

|------------------------------------------------------------------|
|------------------------------------------------------------------|
|------------------------------------------------------------------|
|-----4-2-4-2---------4-2-4-2---------7-5-7-5---------7-5-7-5------|
|-2-2---------4-2-2-2---------4-2-5-5---------7-5-5-5---------7-5--|
|-2-2-------------2-2-------------5-5-------------5-5--------------|
| . .             . .             . .             . .

D#|--------------|
A#|--------------|
F#|-11c----9c----|
C#|--9c----7c----|
G#|--9c----7c----|
C#|--9c----7c----|

Pre-Outro
D#|----------------------------------|
A#|----------------------------------|
F#|----------------------------------|
C#|---------------5-5-5-5-5-5-5-5-5--|
G#|-5-5-5-5-5-5-5-5-5-5-5-5-5-5-5-5--|
C#|-5-5-5-5-5-5-5-5-5-5-5-5-5-5-5-5--|
  | . . . . . . . . . . . .

Outro (Times 6)
|---------10------------10---------------------10------------10-------------|
|-----12-------12------------12-----------12--------12------------12--------|
|-11----------------11------------11--11-----------------11-----------11----|
|---------------------------------------------------------------------------|
|---------------------------------------------------------------------------|
|---------------------------------------------------------------------------|

*Then*
D#|-----------------------------------------------------------------|
A#|-----------------------------------------------------------------|
F#|-----------------------------------------------------------------|
C#|---------0---------------0---------------5---------------5-------|
G#|---------0---------------0---------------5---------------5-------|
C#|-0-0-0-0-0-0-0-0-0-0-0-0-0-0-0-0-5-5-5-5-5-5-5-5-5-5-5-5-5-5-5-5-|
  | . . . .   . . . . . . .   . . . . . . .   . . . . . . .   . . .

D#|-----------------------------------------------------------------|
A#|-----------------------------------------------------------------|
F#|-----------------------------------------------------------------|
C#|---------7---------------7---------------2---------------2-------|
G#|---------7---------------7---------------2---------------2-------|
C#|-7-7-7-7-7-7-7-7-7-7-7-7-7-7-7-7-2-2-2-2-2-2-2-2-2-2-2-2-2-2-2-2-|
  | . . . .   . . . . . . .   . . . . . . .   . . . . . . .   . . .

D#|------|
A#|------|
F#|--7~--|
C#|--5~--|
G#|--5~--|
C#|--5~--|


| b  bend
| /  slide up
| \  slide down
| h  hammer-on
| p  pull-off
| ~  let ring
| +  harmonic
| x  Mute note
===============================================================================
Suggest correction
Give kudos to tab author, rate the tab!
1 2 3 4 5
comments
print report bad tab
4 comments total. Showing first comments.
0 reply
slyo 182 Apr 13, 2006 12:38 PM

i think for the intro, verse etc these notes are being used:


D#|---------------------|
A#|---------------------|
F#|-4---14--------------|
C#|-4---12---9---9---9--|
G#|-2---10---7---9---5--|
C#|----------7---9---5--|

0 reply
schecter006 1,198 May 27, 2006 05:16 PM

Knowing you Slyo, your probably right, cheers for that ;)

0 reply
dbibertie 10 Feb 25, 2013 04:58 PM

I definitely agree with the second guitar, I play this acoustically n mix the second guitar with first guitar chorus but think uve put too many diddly bits lol where U put 5 4 3 etc there's one too many

guest
You may want to rate the tab now too:
select rating
Wanna post a correction for this tab? Suggest correction