Oops, an error
Loading. Please wait.

I Am The Message Tab

version 2
version 2

Whole song

Interactive

2,320 views 1 this week
1 commentread comment
1 2 3 4 5
accurate
x 3
add to favorites
launch autoscroll
font size
0
reset
how to read this tab
guitar tuner
Tab Pro tools
  • play this tab
  • loop segment
  • change instrument
  • show fretboard
  • metronome
×
Best way to learn
"I Am The Message"
Autoscroll
slow
fast
+/-
esc
set tempo
stop
Contributor
Difficulty
Tuning
intermediate
D A D G B E
ok this is my first tab ever! so don't go screaming if its wrong!

INTRO

e|-----------------------------------|
B|-----------------------------------|
G|-----------------------------------|
D|--4-4-4-4-2-2-2-2-1-2-2------------|   X4
A|-2-2-2-2-2-2-2-2-2-2-2--2-2-2-2----|
D|-------------------------2-2-2-2---|

VERSE
this is wrong i think, but i just play this over the bass
CLEAN WITH DELAY
e|----------------------------|
B|----------------------------|
G|-----4-----4-----4-----4----|  X4
D|---4--4--4--4--4--4--4--4---|
A|-22-2--22-2-----------------|
D|-------------44-4--44-4-----|

PRE-CHORUS
  heavy distortion
'HALO YOU MEAN NOTHING TO ME..'
e|---------------------------|
B|---------------------------|
G|-4-------------------------|
D|-4-----------------------2-| X2
A|-2-----------------------2-|
D|-------------------------2-|

CHORUS
 heavy distortion
e|------------------------------------|
B|------------------------------------|
G|------------------------------------|
D|-99999999\66666666\44444444\22222222 X2
A|-99999999\66666666\44444444\22222222
D|-99999999\66666666\44444444\22222222

OR

e|------------------------------------|
B|------------------------------------|
G|------------------------------------|
D|99999999\444444444/66666666\22222222 X2
A|99999999\444444444/66666666\22222222
D|99999999\444444444/66666666\22222222

WHATEVER YOU THINK SOUNDS BEST

VERSE AGAIN X4

PRE- CHORUS X2

CHORUS X2

BRIDGE
  'just take a look at yourself...'
e|------------------------|
B|------------------------|
G|------------------------|
D|-4---------6------4--2--|
A|-4---------6------4--2--| X1
D|-4---------6------4--2--|

e|------------------------|
B|------------------------|
G|------------------------|
D|-6---------9------4--2--| X1
A|-6---------9------4--2--|
D|-6---------9------4--2--|

'TASTE OF A BURNT TOUNGE.'
e|-----------------------|
B|-----------------------|
G|-----------------------|
D|-222222222222222222222
A|-222222222222222222222 X1
D|-222222222222222222222
  PM-------------------->

CHORUS AGAIN X2

And that is it hope you enjoy! =]
comments
We did not receive enough feedback on this tab! Please rate:
print report bad tab
1 2 3 4 5
1 comment total.
0 reply
Tomozaurus wrote on February 2 2009, 01:01 am

Its okay, but not great. Lots of the notes are right, but quite a few aren't also. Good effort for a first tab though.

I want to post or [tab]
guest
You may want to rate the tab now too:
select rating
Please do not post tabs as comments. Select "correction" instead!