Oops, an error
Loading. Please wait.

Mercury Summer Tab

version 1
version 1

Acoustic

Whole song

Interactive

14,531 views 3 this week
2 commentsread comments
1 2 3 4 5
x 3
add to favorites
launch autoscroll
font size
0
reset
how to read this tab
guitar tuner
Autoscroll
slow
fast
+/-
esc
set tempo
stop
Help us to improve Ultimate-Guitar.com Take our survey!
×
Author
Tabbed by Jamie Harris
Standard Tuning

Guitar 1
---------12---------------|
-----10----10--10-----10--|
---12--12----12-----12----|
--------------------------|
-0------------------------|
--------------------------| x 1 for intro

Verse
Guitar 1
---------12--------------12-------     ---------------|
-----10----10--10----10----10--12-     ---------------|
---12--12----12----12--12----12---     ---------------|
----------------------------------     -[10]----------|
-0--------------------------------     ------[10]-[8]-|
---------------------------------- x 8 ---------------|
The notes on the right are root notes, replace them for
the zero in that order.

Guitar 2
-----------------------------------------|
-----------------------------------------|
-----------------------------------------|
-----------------------------------------|
---7--7-7--7--7-7---10--10-10--10--10-10-|
-5---5-5--5--5-5---8---8--8---8---8--8---|

-----------------------------------|
-----------------------------------|
-----------------------------------|
-----------------------------------|
---5--5-5--5--5-5---3--3-3--3--3-3-|
-3---3-3--3--3-3--1---1-1--1--1-1--| [all x2]

Guitar 3 [second half of verse]
---------------------------------------------------------|
-13-12----------13-12------------13-12-------------------|
-------------------------12------------------------------|
-------14-------------14---------------12-------15-14----|
------------------------------------------------------12-|
---------------------------------------------------------|

Pre-Chorus
Guitar 1
---------------------------------|
---------------------------------|
---------------------------------|
-7-7-7-7-7-7-7-7-5-5-5-5-5-5-5-5-|
-7-7-7-7-7-7-7-7-5-5-5-5-5-5-5-5-|
-5-5-5-5-5-5-5-5-3-3-3-3-3-3-3-3-|

---------------------------------|
---------------------------------|
---------------------------------|
-2-2-2-2-2-2-2-2-3-3-3-3-5-5-5-5-|
-2-2-2-2-2-2-2-2-3-3-3-3-5-5-5-5-|
-0-0-0-0-0-0-0-0-1-1-1-1-3-3-3-3-| all palm muted
[exactly half the number of times each chord is played]

Guitar 3
-------------12----------|
-------13----------13----|
-12-14----14----14----14-|
-------------------------|
-------------------------|
-------------------------| x 8

Chorus
Guitar 1
-3-3-3-3-3-3-3-3-3-3-3-3-3-3-3-3-|
-1-1-1-1-1-1-1-1-3-3-3-3-3-3-3-3-|
-2-2-2-2-2-2-2-2-0-0-0-0-0-0-0-0-|
-3-3-3-3-3-3-3-3-2-2-2-2-0-0-0-0-|
-----------------3-3-3-3-x-x-x-x-|
-------------------------3-3-3-3-| x 2

Verse 2 Play second half of verse one

Then Pre-Chorus

Chorus x 4

Bridge
-----------------------------------|
-----------------------------------|
-5-5-5-5-5-5-5-5-7-7-7-7-9-9-10-10-|
-x-x-x-x-x-x-x-x-x-x-x-x-x-x-x--x--|
-3-3-3-3-3-3-3-3-5-5-5-5-7-7-8--8--|
-----------------------------------|

-------------------------------------|
-------------------------------------|
-------------------------------------|
-9-9-9-9-9-9-9-9-10-10-10-10-7-7-7-7-|
-x-x-x-x-x-x-x-x-x--x--x--x--x-x-x-x-|
-7-7-7-7-7-7-7-7-8--8--8--8--5-5-5-5-|

Guitar 3
--------------------------------------------------|
-13-12---------15-13-12------15-13-12------10--12-|
-------12-----------------------------12---12--12-|
----------14------------12------------------------|
--------------------------------------------------|
--------------------------------------------------|

Then chorus x 4

Outro = Intro
Suggest correction
Give kudos to tab author, rate the tab!
1 2 3 4 5
comments
print report bad tab
2 comments total.
0 reply
Leggi 41 May 01, 2009 09:23 AM

Great tab, 5*, but one question.. which finger do you use for the root note in the verse?

0 reply
Claymore65 709 May 04, 2009 05:01 AM

I use my first finger and just hold teh rest in place, and ty btw

guest
You may want to rate the tab now too:
select rating
Wanna post a correction for this tab? Suggest correction