Oops, an error
Loading. Please wait.

Mono Tab

version 1
version 1

Whole song

Interactive

2,917 views 3 this week
2 commentsread comments
1 2 3 4 5
worth learning
x 6
add to favorites
launch autoscroll
font size
0
reset
how to read this tab
guitar tuner
Autoscroll
slow
fast
+/-
esc
set tempo
stop
Help us to improve Ultimate-Guitar.com Take our survey!
×
Author
This is a great song by Fightstar, hopefully with many more to come!

Intro
[Note1: It's played a little softly, so I couldn't figure out the exact amount of played notes]
e-7-5-4-4-4---7-5-4-4-4-----------------------------------------|
B------------------------5-4-5-5-5---5-4-5-5-4-2-2-2-2-2-...~---|
G---------------------------------------------------------------|
D---------------------------------------------------------------|
A---------------------------------------------------------------|
E---------------------------------------------------------------|
[Note2: This is played another two times after the intro, during verse1]

Verse1:
If time could break us down
And not keep us around
I won't wait
I won't wait
Not this time

Verse2
e-------------------------------------------------------|
B-9-9-9-9-7-7-9-9-9-7-7-7-7-5-5-4-4-4-5-5-4-4-4-9-9-9~--|
G-------------------------------------------------------|
D-------------------------------------------------------|
A-------------------------------------------------------|
E-------------------------------------------------------|
[Note3: Don't know the exact amount]

Verse2:
I've started up the clocks
It's time I've left behind
And everything we've lost
Disappears

Verse3:
I've started up the race
It's something I can't change
Now we're not the same

Solo1:
e-----------------------------------------------------------|
B-----------------------------------------------------------|
G-----------------------------------------------------------|
D-----------------------------------------------------------|
A-7->-9->-11-<-9->-11->-12-<-11-<-7-<-6->-9-<-6->-7->-9-<-7-|
E-----------------------------------------------------------|
[Note4: Figure the amounts out for yourself, 'cuz I couldn't :)]
[Note5: Slide from one tone to another]

Verse4:
I'm running past the words
To finish up the thoughts
I won't wait
Not this time

Verse2 [Played as Verse2]:
I've started up the clocks
It's time I left behind
And everything we lost
Disappears

Verse3:
I've started up the race
It's something I can't change
Now we're not the same

E-B-C#-A
[Note6: Played between Verse3 and during Verse5]

Verse5:
I've started up this race
It's something I can't change
Now we're not the same

[Solo1, with another sound]

[Note7: Followed directly by Solo3]
Solo3:
e----------------4->-5-<-4->--------------------------|
B-5->-7->-9-<-7->------------5-<-4->-7-<-4->-5->7->5~-|
G-----------------------------------------------------|
D-----------------------------------------------------|
A-----------------------------------------------------|
E-----------------------------------------------------|
[See Note4 + Note5 ]

[Note8: I couldn't really make up a chorus in this song, so I titled them all verses.]
[Note9: Sorry about all these notes :)]
Suggest correction
comments
print report bad tab
2 comments total.
0 reply
Fender_boi_101 10 wrote on August 7 2006, 03:53 pm

ewverything i 1 fret too high lol

0 reply
Fender_boi_101 10 wrote on August 7 2006, 03:56 pm

is*

guest
You may want to rate the tab now too:
select rating
Please do not post tabs as comments. Select "correction" instead!