Oops, an error
Loading. Please wait.

One Day Son Tab

version 1
version 1

Whole song

Interactive

2,859 views 3 this week
no commentswrite comment
1 2 3 4 5
accurate
x 3
add to favorites
launch autoscroll
font size
0
reset
how to read this tab
guitar tuner
Tab Pro tools
  • play this tab
  • loop segment
  • change instrument
  • show fretboard
  • metronome
Autoscroll
slow
fast
+/-
esc
set tempo
stop
Tuning
C G C F A D
Fightstar
One Day Son

the other tab was mainly rite only the song is in drop C not C#
so here we go...

Tuning:(C G C F A D)

Intro
|---------0---------------0---------------0---------------0-------|
|-----6-----6---6-----6-----6---6-----6-----6---6-----6-----6---6-|
|---5---5-----5-----5---5-----5-----5---5-----5-----5---5-----5---|
|-3---------------3---------------3---------------3---------------|
|-----------------------------------------------------------------|
|-----------------------------------------------------------------|

Intro pt2
Gtr 1 (x2)
|-------------------------------------------------------------------------|
|-------------------------------------------------------------------------|
|-------------------------------------------------------------------------|
|-8-8-88-7h8-8-8\10-10h0-0-00-00-0-00-2\3-3-33-33-3-33-3\7-7-77-77-7-77-7-|
|-8-8-88-7h8-8-8\10-10h0-0-00-00-0-00-2\3-3-33-33-3-33-3\7-7-77-77-7-77-7-|
|-8-8-88-7h8-8-8\10-10h0-0-00-00-0-00-2\3-3-33-33-3-33-3\7-7-77-77-7-77-7-|

Gtr 2 (second time)
|-----------------------------------------------------------------------|
|-----------------------------------------------------------------------|
|-7-7-77-x7-7-7\9-9\10-10-1010-1010-10-10\12-12\14-14-1414-1414-14-1414-|
|-x-x-xx-xx-x-x-x-x--x--x--x-x--x-x--x--x--x--x--x--x--x-x--x-x--x--x-x-|
|-5-5-55-x5-5-5\7-7\-8--8--8-8--8-8--8--8\10-10\12-12-1212-1212-12-1212-|
|-----------------------------------------------------------------------|

|---------------------|
|---------------------|
|-14/6-6-66-66-6-66-6-|
|--x-x-x-xx-xx-x-xx-x-|
|-12/4-4-44-44-4-44-4-|
|---------------------|

Verse (x2)
|---------0---------------0---------------0---------------0-------|
|-----6-----6---6-----6-----6---6-----6-----6---6-----6-----6---6-|
|---5---5-----5-----5---5-----5-----5---5-----5-----5---5-----5---|
|-3---------------3---------------3---------------3---------------|
|-----------------------------------------------------------------|
|-----------------------------------------------------------------|

|-----------------------------------------|
|--8p5-6p5-8p5-6p5------8p5-6p5-8p5-6p5---|
|------------------7--------------------7-|
|-----------------------------------------|
|-----------------------------------------|
|-----------------------------------------|

Pre-Chorus
Bass
|-----------------------------------------------------------------------|
|----7--------7--------6--------6--------5--------5---------------------|
|-5h8-8p5--5h8-8p5--4h7-7p4--4h7-7p4--3h6-6p3--3h6-6p3--1-1-1-111/4-4-4-|
|-----------------------------------------------------------------------|

Chorus
Gtr 1
|------------------------------------------------------------------------|
|------------------------------------------------------------------------|
|------------------------------------------------------------------------|
|-33333333-33333333-77777777-77777777-88888888-88888888-1111111111111111-|
|-33333333-33333333-77777777-77777777-88888888-88888888-1111111111111111-|
|-33333333-33333333-77777777-77777777-88888888-88888888-1111111111111111-|

|------------------------------------------------------------------------|
|------------------------------------------------------------------------|
|-------------------22222222---------------------------------------------|
|-33333333-22222222-22222222-22222222-88888888-8p0~8p0~-1111111111111111-|
|-33333333-33333333-00000000-33333333-88888888-8p0~8p0~-1111111111111111-|
|-33333333-22222222----------22222222-88888888-8p0~8p0~-1111111111111111-|

Gtr 2 (tremolo picking)
|-13~-----12~-----15~-----12~-----13~-----13~-----15~-----17~-18~-|
|-----------------------------------------------------------------|
|-----------------------------------------------------------------|
|-----------------------------------------------------------------|
|-----------------------------------------------------------------|
|-----------------------------------------------------------------|

Repeat Verse, Pre-Chorus and Chorus

Breakdown                                 Gtr 1
|-17~----------18~----------17~----------|---------------------|
|------18~-15~------18~-15~------18~-15~-|---------------------|
|----------------------------------------|---------------------|
|----------------------------------------|-8-8-8-8-11-11-11-11-|
|----------------------------------------|-8-8-8-8-11-11-11-11-|
|----------------------------------------|-8-8-8-8-11-11-11-11-|

Bridge
Gtr 1
|---------------------------------------------------------------------|
|---------------------------------------------------------------------|
|---------------------------------------------------------------------|
|------------------7777777777777777-3333333333333333-7777777777777777-|
|------------------7777777777777777-3333333333333333-7777777777777777-|
|------------------7777777777777777-3333333333333333-7777777777777777-|

Gtr 2 (tremolo picking)
|-13~-----12~------15~-----12~------13~-----12~------15~-----12~------|
|---------------------------------------------------------------------|
|---------------------------------------------------------------------|
|---------------------------------------------------------------------|
|---------------------------------------------------------------------|
|---------------------------------------------------------------------|

Back to Chorus
Gtr 1
|------------------------------------------------------------------------|
|------------------------------------------------------------------------|
|------------------------------------------------------------------------|
|-33333333-33333333-77777777-77777777-88888888-88888888-1111111111111111-|
|-33333333-33333333-77777777-77777777-88888888-88888888-1111111111111111-|
|-33333333-33333333-77777777-77777777-88888888-88888888-1111111111111111-|

|------------------------------------------------------------------------|
|------------------------------------------------------------------------|
|-------------------22222222---------------------------------------------|
|-33333333-22222222-22222222-22222222-88888888-8p0~8p0~-1111111111111111-|
|-33333333-33333333-00000000-33333333-88888888-8p0~8p0~-1111111111111111-|
|-33333333-22222222----------22222222-88888888-8p0~8p0~-1111111111111111-|

Gtr 2 (tremolo picking)
|-13~-----12~-----15~-----12~-----13~-----13~-----15~-----17~-18~-|
|-----------------------------------------------------------------|
|-----------------------------------------------------------------|
|-----------------------------------------------------------------|
|-----------------------------------------------------------------|
|-----------------------------------------------------------------|

Outro
|--------------------------------------------------------------------------|
|--------------------------------------------------------------------------|
|--------------------------------------------------------------------------|
|-8-8-88-7h8-8-8\10-10h0-0-00-00-0-00-2\3-3-33-33-3-33-3\7-7-77-77-7-77-7\-|
|-8-8-88-7h8-8-8\10-10h0-0-00-00-0-00-2\3-3-33-33-3-33-3\7-7-77-77-7-77-7\-|
|-8-8-88-7h8-8-8\10-10h0-0-00-00-0-00-2\3-3-33-33-3-33-3\7-7-77-77-7-77-7\-|

Gtr 2
|-----------------------------------------------------------------------|
|-----------------------------------------------------------------------|
|-7-7-77-x7-7-7\9-9\10-10-1010-1010-10-10\12-12\14-14-1414-1414-14-1414-|
|-x-x-xx-xx-x-x-x-x--x--x--x-x--x-x--x--x--x--x--x--x--x-x--x-x--x--x-x-|
|-5-5-55-x5-5-5\7-7\-8--8--8-8--8-8--8--8\10-10\12-12-1212-1212-12-1212-|
|-----------------------------------------------------------------------|

|----------------------|
|----------------------|
|-14/6-6-66-66-6-66-6\-|
|--x-x-x-xx-xx-x-xx-x\-|
|-12/4-4-44-44-4-44-4\-|
|----------------------|

End On
Gtr 1
|-----|
|-----|
|-----|
|-\8~-|
|-\8~-|
|-\8~-|

Gtr 2
|-----|
|-----|
|-\7~-|
|--x--|
|-\5~-|
|-----|

that should work for ya...cheers:)
comments
We did not receive enough feedback on this tab! Please rate:
print report bad tab
1 2 3 4 5
I want to post or [tab]
guest
You may want to rate the tab now too:
select rating
Please do not post tabs as comments. Select "correction" instead!