Oops, an error
Loading. Please wait.

One Day Son Tab

version 2
version 2

Whole song

Interactive

1,428 views 1 this week
1 commentread comment
1 2 3 4 5
please rate
add to favorites
launch autoscroll
font size
0
reset
how to read this tab
guitar tuner
Tab Pro tools
  • play this tab
  • loop segment
  • change instrument
  • show fretboard
  • metronome
×
Best way to learn
"One Day Son"
Autoscroll
slow
fast
+/-
esc
set tempo
stop
Difficulty
intermediate
Fightstar
One Day Son
One Day Son, This Will All Be Yours

deadly song, hard enough to work out, have fun

tuning - C#,Ab,C#,F#,Bb,Eb (drop D,down 1/2 step)
(4)=optional
16c=tremolo picking

Intro pt1 (clean) x2
|-----------0-----------------0------|
|-----5---4---4---------5---4---4----|
|---4--(4)-----(4)----4--(4)-----(4)-|
|-2-----------------2----------------|
|------------------------------------|
|------------------------------------|

Intro pt2 (distorted) x2
|------------------------------------------------------------------------|
|------------------------------------------------------------------------|
|------------------------------------------------------------------------|
|-7-7-77-6h7-7-7\9-11-11-1111-111111-11\13-2-2-22-222-22-2-6-6-66-666-66-|
|-7-7-77-6h7-7-7\9-11-11-1111-111111-11\13-2-2-22-222-22-2-6-6-66-666-66-|
|-7-7-77-6h7-7-7\9-11-11-1111-111111-11\13-2-2-22-222-22-2-6-6-66-666-66-|

Verse (clean) x2
|-----------0-----------------0-----------------0-----------------0------|
|-----5---4---4---------5---4---4---------5---4---4---------5---4---4----|
|---4--(4)-----(4)----4--(4)-----(4)----4--(4)-----(4)----4--(4)-----(4)-|
|-2-----------------2-----------------2-----------------2----------------|
|------------------------------------------------------------------------|
|------------------------------------------------------------------------|

|-------------------------------|
|--7p5-5p4-7p5-5p4-2--7p5-5p4-2-|
|-------------------------------|
|-------------------------------|
|-------------------------------|
|-------------------------------|

Pre-chorus (can only work out the bass)
|------------------------------------------------------|
|---6------6------5------5------4------4---------------|
|-47-74--47-74--36-63--36-63--25-52--25-52--000000\333-|
|------------------------------------------------------|

Chorus (distorted) x2
|---------------------------------------------------------------------|
|---------------------------------------------------------------------|
|---------------------------------------------------------------------|
|-2222222222222222-6666666666666666-7777777777777777-1010101010101010-|
|-2222222222222222-6666666666666666-7777777777777777-1010101010101010-|
|-2222222222222222-6666666666666666-7777777777777777-1010101010101010-|
                                                            /\
                                                         thats ten
Repeat verse, pre-chorus & chorus
then
Interlude
|------------|-----------|-------|-16c-12c---17c-12c---16c-12c----|
|------------|-----------|-------|--------14c-------14c-------14c-|
|-rest while-|-----------|-9~-8~-|--------------------------------|
|-bass plays-|-----------|-------|--------------------------------|
|------------|-----------|-------|--------------------------------|
|------------|-3~-6~5~2~-|-------|--------------------------------|
                                                             just go and...
walk with the...        dead...         dead...
|---------------------|-12c-11c-14c-11c-12c-11c-14c-11c--|}guitar2
|---------------------|----------------------------------|
|-9~9~9~9~12~12~12~12~|---------888888884444444488888888-|}
|-7~7~7~7~10~10~10~10~|---------666666662222222266666666-|}guitar1
|-7~7~7~7~10~10~10~10~|---------666666662222222266666666-|}
|-7~7~7~7~10~10~10~10~|---------666666662222222266666666-|}

Chorus (distorted) x2
|---------------------------------------------------------------------|
|---------------------------------------------------------------------|
|---------------------------------------------------------------------|
|-2222222222222222-6666666666666666-7777777777777777-1010101010101010-|
|-2222222222222222-6666666666666666-7777777777777777-1010101010101010-|
|-2222222222222222-6666666666666666-7777777777777777-1010101010101010-|
                                                           /\
                                                        thats ten
Ending (distorted)
|------------------------------------------------------------------------|
|------------------------------------------------------------------------|
|------------------------------------------------------------------------|
|-7-7-77-6h7-7-7\9-11-11-1111-111111-11\13-2-2-22-222-22-2-6-6-66-666-66-|
|-7-7-77-6h7-7-7\9-11-11-1111-111111-11\13-2-2-22-222-22-2-6-6-66-666-66-|
|-7-7-77-6h7-7-7\9-11-11-1111-111111-11\13-2-2-22-222-22-2-6-6-66-666-66-|

|----|
|----|
|----|
|-7~-|
|-7~-|
|-7~-| 

except for the birds and the clanking thats it, cheers
comments
We did not receive enough feedback on this tab! Please rate:
print report bad tab
1 2 3 4 5
1 comment total.
0 reply
schecter006 wrote on November 12 2007, 12:12 pm

this song is supposed to be in drop C

I want to post or [tab]
guest
You may want to rate the tab now too:
select rating
Please do not post tabs as comments. Select "correction" instead!