Oops, an error
Loading. Please wait.

Open Your Eyes Tab

956 views 1 this week
1 commentread comment
1 2 3 4 5
1 last vote to show rating
add to favorites
launch autoscroll
font size
0
reset
how to read this tab
guitar tuner
Autoscroll
slow
fast
+/-
esc
set tempo
stop
Help us to improve Ultimate-Guitar.com Take our survey!
×
Tuning
D A D G B E
Fightstar
Open Your Eyes
Tuning: (D A D G B E)

this isnt much but all the rest is pretty much the same

Intro
|-3-----3-----3-----3-----3------3-----3-----3-----3-----3------|
|-----1-----1-----1-----1-----1~-----1-----1-----1-----1-----1~-|
|---2-----2-----2-----2-----2------2-----2-----2-----2-----2----|
|---------------------------------------------------------------|
|---------------------------------------------------------------|
|---------------------------------------------------------------|

Later on...
|-----------------------------------------------------------------|
|-----------------------------------------------------------------|
|-7p5-5-5-5-5-5-5-5-5-5-5-5-5-5-5-7p5-5-5-5-5-5-5-7p5-5-5-7p5-5-5-|
|-----------------------------------------------------------------|
|-----------------------------------------------------------------|
|-----------------------------------------------------------------|

|-------------------------------------|
|-------------------------------------|
|-------------------------------------|
|-55555555/77777777-55555555/77777777-|
|-33333333/55555555-33333333/55555555-|
|-33333333/55555555-33333333/55555555-|

thats about it, cheers...we love you tiffers xx
Suggest correction
Give kudos to tab author, rate the tab!
1 2 3 4 5
comments
print report bad tab
1 comment total.
+1 reply
fightstarrock99 10 Mar 17, 2008 05:46 PM

Wow this is actually quite an accurate tab, well done, keep making more!!!!!!

guest
You may want to rate the tab now too:
select rating
Wanna post a correction for this tab? Suggest correction