Oops, an error
Loading. Please wait.

Our Last Common Ancestor Tab

version 1
version 1

Whole song

Interactive

1,135 views 1 this week
1 commentread comment
1 2 3 4 5
1 last vote to show rating
add to favorites
launch autoscroll
font size
0
reset
how to read this tab
guitar tuner
Autoscroll
slow
fast
+/-
esc
set tempo
stop
Help us to improve Ultimate-Guitar.com Take our survey!
×
Author
Difficulty
Tuning
intermediate
C G C F A D
Hello, this is Fightstars song from One Day Son This Will All Be Yours. Enjoy...

INTRO/ VERSE:

D|-------------|--------|--------------|---------|
A|-------------|--------|--------------|---------|
F|-----8-----8-|-----8--|------7----7--|------7--|Play as much as you need to
C|---6-------6-|-----6--|----5------5--|------5--|
G|-6-------6---|--6-----|--5------5----|--5------|
C|-------------|--------|--------------|---------|

(The earth spin)
D|-----------------|-----------------|-----------------|----------------|
A|-----------------|-----------------|-----------------|----------------|
F|-----------------|-----------------|-----------------|----------------|
C|-6-6-6-6-6-6-6-6-|-6-6-6-6-6-6-6-6-|-6-6-6-6-6-6-6-6-|-6--6--6--6---6-|
G|-6-6-6-6-6-6-6-6-|-6-6-6-6-6-6-6-6-|-6-6-6-6-6-6-6-6-|-6--6--6--6---6-|
C|-6-6-6-6-6-6-6-6-|-6-6-6-6-6-6-6-6-|-6-6-6-6-6-6-6-6-|-6--6--6--6---6-|

(And I have found...)
D|-------------|--------|--------------|---------|
A|-------------|--------|--------------|---------|
F|-----8-----8-|-----8--|------7----7--|------7--|Play as much as you need to
C|---6-------6-|-----6--|----5------5--|------5--|
G|-6-------6---|--6-----|--5------5----|--5------|
C|-------------|--------|--------------|---------|

(My own skin....)
D|-----------------|-----------------|-----------------|----------------|
A|-----------------|-----------------|-----------------|----------------|
F|-----------------|-----------------|-----------------|----------------|
C|-6-6-6-6-6-6-6-6-|-6-6-6-6-6-6-6-6-|-6-6-6-6-6-6-6-6-|-6--6--6--6---6-|
G|-6-6-6-6-6-6-6-6-|-6-6-6-6-6-6-6-6-|-6-6-6-6-6-6-6-6-|-6--6--6--6---6-|
C|-6-6-6-6-6-6-6-6-|-6-6-6-6-6-6-6-6-|-6-6-6-6-6-6-6-6-|-6--6--6--6---6-|

(So please, please make me...)
e|-------|--------|--------|--------|--------|--------|--------|--------|
B|-------|--------|--------|--------|--------|--------|--------|--------|
G|-------|--------|--------|--------|--------|--------|--------|--------|
D|-6--6--|--6--6--|--5--5--|--5--5--|--6--6--|--6--6--|--5--5--|--5--5--|
A|-6--6--|--6--6--|--5--5--|--5--5--|--6--6--|--6--6--|--5--5--|--5--5--|
E|-6--6--|--6--6--|--5--5--|--5--5--|--6--6--|--6--6--|--5--5--|--5--5--|

D|-------------|--------|--------------|---------|
A|-------------|--------|--------------|---------|
F|-----8-----8-|-----8--|------7----7--|------7--|Play as much as you need to
C|---6-------6-|-----6--|----5------5--|------5--|
G|-6-------6---|--6-----|--5------5----|--5------|
C|-------------|--------|--------------|---------|

(So please, please make me...)
e|-----------------|-----------------|-----------------|-----------------|
B|-----------------|-----------------|-----------------|-----------------|
G|-----------------|-----------------|-----------------|-----------------|
D|-6-6-6-6-6-6-6-6-|-6-6-6-6-6-6-6-6-|-5-5-5-5-5-5-5-5-|-5-5-5-5-5-5-5-5-|
A|-6-6-6-6-6-6-6-6-|-6-6-6-6-6-6-6-6-|-5-5-5-5-5-5-5-5-|-5-5-5-5-5-5-5-5-|
E|-6-6-6-6-6-6-6-6-|-6-6-6-6-6-6-6-6-|-5-5-5-5-5-5-5-5-|-5-5-5-5-5-5-5-5-|

D|-11-11-11-11-11-11-11-11-|-18-18-18-18-18-18-18-18-|
A|-------------------------|-------------------------|
F|-------------------------|-------------------------|
C|-------------------------|-------------------------|
G|-------------------------|-------------------------|
C|-------------------------|-------------------------|

D|-13-13-13-13-13-13-13-13-|-11-11-11-11-11-11-11-11-|
A|-------------------------|-------------------------|
F|-------------------------|-------------------------|
C|-------------------------|-------------------------|
G|-------------------------|-------------------------|
C|-------------------------|-------------------------|

(My shadow grabs me...)
D|-11-11-11-11-11-11-11-11-|-18-18-18-18-18-18-18-18-|
A|-------------------------|-------------------------|
F|-------------------------|-------------------------|
C|-------------------------|-------------------------|
G|-------------------------|-------------------------|
C|-------------------------|-------------------------|

D|-13-13-13-13-13-13-13-13-|-11-11-11-11-11-11-11-11-|
A|-------------------------|-------------------------|
F|-------------------------|-------------------------|
C|-------------------------|-------------------------|
G|-------------------------|-------------------------|
C|-------------------------|-------------------------|

So please, please make me...)
e|-----------------|-----------------|-----------------|-----------------|
B|-----------------|-----------------|-----------------|-----------------|
G|-----------------|-----------------|-----------------|-----------------|
D|-6-6-6-6-6-6-6-6-|-6-6-6-6-6-6-6-6-|-5-5-5-5-5-5-5-5-|-5-5-5-5-5-5-5-5-| Until it finishes...
A|-6-6-6-6-6-6-6-6-|-6-6-6-6-6-6-6-6-|-5-5-5-5-5-5-5-5-|-5-5-5-5-5-5-5-5-|
E|-6-6-6-6-6-6-6-6-|-6-6-6-6-6-6-6-6-|-5-5-5-5-5-5-5-5-|-5-5-5-5-5-5-5-5-|


D|-------------|--------|--------------|---------|
A|-------------|--------|--------------|---------|
F|-----8-----8-|-----8--|------7----7--|------7--|
C|---6-------6-|-----6--|----5------5--|------5--|
G|-6-------6---|--6-----|--5------5----|--5------|
C|-------------|--------|--------------|---------|

D|-------------|--------|--------------|---------|
A|-------------|--------|--------------|---------|
F|-----8-----8-|-----8--|------7----7--|------7--|
C|---6-------6-|-----6--|----5------5--|------5--|
G|-6-------6---|--6-----|--5------5----|--5------|
C|-------------|--------|--------------|---------|


D|-------------|--------|--------------|---------|
A|-------------|--------|--------------|---------|
F|-----8-----8-|-----8--|------7----7--|------7--|
C|---6-------6-|-----6--|----5------5--|------5--|
G|-6-------6---|--6-----|--5------5----|--5------|
C|-------------|--------|--------------|---------|

D|----------|
A|----------|
F|----8-----|
C|----6-----| 
G|----6-----|
C|----------|

I know it's not THE tab, but it's Charlie's part...
Suggest correction
Give kudos to tab author, rate the tab!
1 2 3 4 5
comments
print report bad tab
1 comment total.
0 reply
c1classic 10 Apr 15, 2008 04:44 AM

its should be in drop C# this song!

guest
You may want to rate the tab now too:
select rating
Wanna post a correction for this tab? Suggest correction