Oops, an error
Loading. Please wait.

Our Last Common Ancestor Tab

version 2
version 2

Whole song

2,429 views 3 this week
1 commentread comment
1 2 3 4 5
accurate
x 5
add to favorites
launch autoscroll
font size
0
reset
how to read this tab
guitar tuner
Autoscroll
slow
fast
+/-
esc
set tempo
stop
Help us to improve Ultimate-Guitar.com Take our survey!
×
Author
Difficulty
-------------------------------------------------------------------------------
                    Our Last Common Ancestor- Fightstar
-------------------------------------------------------------------------------
Tabbed by:Thom
Email:thomgreenwood@hotmail.co.uk

Tuning:drop Db 

Just charlies guitar parts 

eb|------------------------------------------------------------------------|
Bb|------------------------------------------------------------------------|
Gb|------------------------------------------------------------------------|
Db|--12------12----------12~----11------11--------11~----------------------|
Ab|--9-------9-----------9-~----9-------9---------9-~----------------------|
Db|0-----0-0-----0------------0-----0-0-----0------------------------------|
                                       x2 before singing and x2 with singing

'The Earth Spin'
eb|------------------------------------------------------------------------|
Bb|------------------------------------------------------------------------|
Gb|77777-7777777-77777-7777666-6-------------------------------------------|
Db|55555-5555555-55555-5555555-5-------------------------------------------|
Ab|55555-5555555-55555-5555555-5-------------------------------------------|
Db|55555-5555555-55555-5555555-5-------------------------------------------|

eb|------------------------------------------------------------------------|
Bb|------------------------------------------------------------------------|
Gb|------------------------------------------------------------------------|
Db|--12------12----------12~----11------11--------11~----------------------|
Ab|--9-------9-----------9-~----9-------9---------9-~----------------------|
Db|0-----0-0-----0------------0-----0-0-----0------------------------------|
                                                           x2
'Of My Own Skin'
eb|------------------------------------------------------------------------|
Bb|------------------------------------------------------------------------|
Gb|77777-7777777-77777-7777666-6-------------------------------------------|
Db|55555-5555555-55555-5555555-5-------------------------------------------|
Ab|55555-5555555-55555-5555555-5-------------------------------------------|
Db|55555-5555555-55555-5555555-5-------------------------------------------|

'So Please...'
eb|------------------------------------------------------------------------|
Bb|------------------------------------------------------------------------|
Gb|11-111111----7-7-7-7-7-7-7---7-7-7-7-7---6-6-6-6-6---7-7-7-7-7----------|
Db|9--9-9-9-----0-0-0-0-0-0-0---5-5-5-5-5---0-0-0-0-0---5-5-5-5-5----------|
Ab|9--9-9-9-----0-0-0-0-0-0-0---5-5-5-5-5---0-0-0-0-0---5-5-5-5-5----------|
Db|9--9-9-9-----0-0-0-0-0-0-0---5-5-5-5-5---0-0-0-0-0---5-5-5-5-5----------|
listen to get rhythm etc here.^




eb|------------------------------------------------------------------------|
Bb|------------------------------------------------------------------------|
Gb|------------------------------------------------------------------------|
Db|--12------12----------12~----11------11--------11~----------------------|
Ab|--9-------9-----------9-~----9-------9---------9-~----------------------|
Db|0-----0-0-----0------------0-----0-0-----0------------------------------|
                                                           x2

eb|------------------------------------------------------------------------|
Bb|------------------------------------------------------------------------|
Gb|77777-7777777-77777-7777666-6-------------------------------------------|
Db|55555-5555555-55555-5555555-5-------------------------------------------|
Ab|55555-5555555-55555-5555555-5-------------------------------------------|
Db|55555-5555555-55555-5555555-5-------------------------------------------|

'So Please...'
eb|------------------------------------------------------------------------|
Bb|------------------------------------------------------------------------|
Gb|11-111111----7-7-7-7-7-7-7---7-7-7-7-7---6-6-6-6-6---7-7-7-7-7----------|
Db|9--9-9-9-----0-0-0-0-0-0-0---5-5-5-5-5---0-0-0-0-0---5-5-5-5-5----------|
Ab|9--9-9-9-----0-0-0-0-0-0-0---5-5-5-5-5---0-0-0-0-0---5-5-5-5-5----------|
Db|9--9-9-9-----0-0-0-0-0-0-0---5-5-5-5-5---0-0-0-0-0---5-5-5-5-5----------|


eb|------------------------------------------------------------------------|
Bb|------------------------------------------------------------------------|
Gb|--7---7---7-----7-----9-----9-----9-----9-----9----11-----11-----11---11|
Db|------------------------------------------------------------------------|
Ab|5---5----5----5----7-----7-----7-----7-----7-----9-----9------9-----9---|
Db|------------------------------------------------------------------------|

e|-------------------------------------------------------------------------|
B|----12----12----12----12-------------------------------------------------|
G|-------------------------------------------------------------------------|
D|-9-----9-----9-----9-----------------------------------------------------|
A|-------------------------------------------------------------------------|
E|-------------------------------------------------------------------------|

'My Shadow grabbed me...'
eb|------------------------------------------------------------------------|
Bb|------------------------------------------------------------------------|
Gb|--7---7---7-----7-----9-----9-----9-----9-----9----11-----11-----11---11|
Db|------------------------------------------------------------------------|
Ab|5---5----5----5----7-----7-----7-----7-----7-----9-----9------9-----9---|
Db|------------------------------------------------------------------------|

e|-------------------------------------------------------------------------|
B|----12----12----12----12-----12----12---12-----12------------------------|
G|-------------------------------------------------------------------------|
D|-9-----9-----9-----9------9-----9-----9-----9----------------------------|
A|-------------------------------------------------------------------------|
E|-------------------------------------------------------------------------|

'So Please...'
eb|------------------------------------------------------------------------|
Bb|------------------------------------------------------------------------|
Gb|11-111111----7-7-7-7-7-7-7---7-7-7-7-7---6-6-6-6-6---7-7-7-7-7--------11|
Db|9--9-9-9-----0-0-0-0-0-0-0---5-5-5-5-5---0-0-0-0-0---5-5-5-5-5--------9-|
Ab|9--9-9-9-----0-0-0-0-0-0-0---5-5-5-5-5---0-0-0-0-0---5-5-5-5-5--------9-|
Db|9--9-9-9-----0-0-0-0-0-0-0---5-5-5-5-5---0-0-0-0-0---5-5-5-5-5--------9-|

'Please...'
eb|------------------------------------------------------------------------|
Bb|------------------------------------------------------------------------|
Gb|11-111111----7-7-7-7-7-7-7---7-7-7-7-7---6-6-6-6-6---7-7-7-7-7----------|
Db|9--9-9-9-----0-0-0-0-0-0-0---5-5-5-5-5---0-0-0-0-0---5-5-5-5-5----------|
Ab|9--9-9-9-----0-0-0-0-0-0-0---5-5-5-5-5---0-0-0-0-0---5-5-5-5-5----------|
Db|9--9-9-9-----0-0-0-0-0-0-0---5-5-5-5-5---0-0-0-0-0---5-5-5-5-5----------|

eb|------------------------------------------------------------------------|
Bb|------------------------------------------------------------------------|
Gb|------------------------------------------------------------------------|
Db|--12------12----------12~----11------11--------11~-----12~--------------|
Ab|--9-------9-----------9-~----9-------9---------9-~-----9-~--------------|
Db|0-----0-0-----0------------0-----0-0-----0-------------0-~--------------|



Comments and suggestions please

Awesome song!!!

| /  slide up
| \  slide down
| h  hammer-on
| p  pull-off
| ~  vibrato
| +  harmonic
| x  Mute note
===============================================================================
Suggest correction
comments
print report bad tab
1 comment total.
-1 reply
c1classic 10 wrote on April 15 2008, 04:45 am

very slightly off in the chorus, but other than that awesome!

guest
You may want to rate the tab now too:
select rating
Wanna post a correction for this tab? Suggest correction