Oops, an error
Loading. Please wait.

Out Swimming In The Flood Tab

319 views 1 this week
no commentswrite comment
1 2 3 4 5
not so good
x 4
add to favorites
launch autoscroll
font size
0
reset
how to read this tab
guitar tuner
Autoscroll
slow
fast
+/-
esc
set tempo
stop
Help us to improve Ultimate-Guitar.com Take our survey!
×
Author
-------------------------------------------------------------------------------
                           Out swimming in the flood - Fightstar
-------------------------------------------------------------------------------
Tabbed by: Jamez G
Email: J4mesis@hotmail.com

Tuning: BADGBe (Drop B)
-------------------------------------------------------------------------------

First detune the bottom E string all the way down to a B (make the string a higher gauge 
best results). This is the way I think that Charlie plays it, not sure what Al does in 
intro.

Intro:

E - -- - - -- -- -- -- -- -- --
B - -- - - -- -- -- -- -- -- --
G - -- - - -- -- -- -- -- -- --
D - -- - - -- -- -- -- -- -- --
A - -- - - -- -- -- -- -- -- --
B 0 10 0 0 10 12 15 12 10 11 12

Next bit is just the same with different ending
E - -- - - -- -- -- -- -- -- --
B - -- - - -- -- -- -- -- -- --
G - -- - - -- -- -- -- -- -- --
D - -- - - -- -- -- -- -- -- --
A - -- - - -- -- -- -- -- -- --
B 0 10 0 0 10 12 15 12 12 10

Repeat this once

The Verse:

The next part I think is just this repeated once, there are some extra bits over the top 
by the other guitar.

E -- -- -- -- -- -- -- --
B 12 12 12 12 12 12 12 12
G -- -- -- -- -- -- -- --
D 14 14 14 14 13 13 13 13
A -- -- -- -- -- -- -- --
B -- -- -- -- -- -- -- --

..Please don't hate me:

E ---------------------------------|
B 12--12--12--12--12--12--12--12---|
G ---------------------------------|
D --14--14--14--14--13--13--13--13-|
A ---------------------------------|
B ---------------------------------|


E ---------------------------------|
B 14--14--14--14--12--12--12--12---|
G ---------------------------------|
D --14--14--14--14--14--14--14--14-|
A ---------------------------------|
B ---------------------------------|

Chorus:

Here are the main chords.. It sounds like there's a higher part too, this is not tabbed.

E -4444222200000000
B -5555444422222222
G -6666444422222222
D -6666444422222222
A -4444222200000000
B -----0000--------

Repeat above once more.

Then the entire thing repeats for the second verse/chorus
Suggest correction
comments
print report bad tab
guest
You may want to rate the tab now too:
select rating
Please do not post tabs as comments. Select "correction" instead!