Oops, an error
Loading. Please wait.

Paint Your Target Tab

version 1
version 1

Acoustic

8,710 views 3 this week
8 commentsread comments
1 2 3 4 5
accurate
x 13
add to favorites
launch autoscroll
font size
0
reset
how to read this tab
guitar tuner
Autoscroll
slow
fast
+/-
esc
set tempo
stop
Help us to improve Ultimate-Guitar.com Take our survey!
×
Contributor
Devastate 313
PLEASE NOTE: THIS IS NOT THE SAME SONG AS PAINT YOUR TARGET, THIS AN UNPLUGGED VERSION
THAT IS ALSO ON THE SINGLE, AND IS COMPLETELY DIFFERENT.


Artist: FightStar
Song: Paint Your Target Acoustic
Album: Paint Your Target (DVD) (Single)

Tabbed by: John O'Nolan, Copyright 2005, All rights reserved.

Tuning: drop-D - ( D/A/D/G/B/e )
Effects: none

p  = pull
h  = hammer
/  = slide up
\\ = slide down
~  = let ring
c  = continueous picking/strumming
m  = half mute
x  = complete mute
^  = bend up




-=> 1st Guitar Part - Charlie Simpson <=-



=>INTRO<=
e |0|---------0-----------------0--|0|---------0-----------------0--|
B |7|-----7-----------------7------|x|------------------------------|
G |4|---4---4----4---4----4---4----|4|-----4------4---4------4------|
D |6|-6------------6----6----------|2|---2---2------2------2---2----|
A |x|------------------------------|4|-4-----------------4----------|
D |x|------------------------------|x|------------------------------|

e |0|---------0-----------------0--|0|---------0--------------------|
B |7|-----7-----------7-----7------|x|------------------------------|
G |4|---4---4----4------4-----4----|4|-----4------4---4-------------|
D |6|-6------------6------6--------|2|---2---2------2---------------|
A |x|------------------------------|4|-4-----------------4~---------|
D |x|------------------------------|x|------------------------------|



=>VERSE<=
e |0|---------0-----------------0--|0|---------0-----------------0--|
B |7|-----7-----------7-----7------|7|-----7-----------7-----7------|
G |4|---4---4----4------4-----4----|4|---4---4----4------4-----4----|
D |6|-6------------6------6--------|6|-6------------6------6--------|
A |x|------------------------------|x|------------------------------|
D |x|------------------------------|x|------------------------------|

e |0|---------0-----------------0--|0|---------0-----------------0--|
B |x|------------------------------|x|------------------------------|
G |4|-----4------4---4------4------|4|-----4------4---4------4------|
D |2|---2---2------2------2---2----|2|---2---2------2------2---2----|
A |4|-4-----------------4----------|4|-4-----------------4----------|
D |x|------------------------------|x|------------------------------|



=>VERSE<=  (Whole thing times 2)
e |0|---------0-----------------0--|0|---------0-----------------0--|
B |7|-----7-----------7-----7------|7|-----7-----------7-----7------|
G |4|---4---4----4------4-----4----|4|---4---4----4------4-----4----|
D |6|-6------------6------6--------|6|-6------------6------6--------|
A |x|------------------------------|x|------------------------------|
D |x|------------------------------|x|------------------------------|
       1st:You hide it every time...
       2nd:You left another question...
e |0|---------0-----------------0--|0|---------0-----------------0--|
B |x|------------------------------|x|------------------------------|
G |4|-----4------4---4------4------|4|-----4------4---4------4------|
D |2|---2---2------2------2---2----|2|---2---2------2------2---2----|
A |4|-4-----------------4----------|4|-4-----------------4----------|
D |x|------------------------------|x|------------------------------|
       1st:Impatence waits around...
       2nd:Without even trying...



=>PRECHORUS<=
e |0|---------0-----------------0--|0|---------0-----------------0--|
B |7|-----7-----------------7------|x|------------------------------|
G |4|---4---4----4---4----4---4----|4|-----4------4---4------4------|
D |6|-6------------6----6----------|2|---2---2------2------2---2----|
A |x|------------------------------|4|-4-----------------4----------|
D |x|------------------------------|x|------------------------------|
           I'm just not sure its gonna work...
e |0|---------0-----------------0--|0|---------0--------------------|
B |7|-----7-----------7-----7------|x|------------------------------|
G |4|---4---4----4------4-----4----|4|-----4------4---4-------------|
D |6|-6------------6------6--------|2|---2---2------2---------------|
A |x|------------------------------|4|-4-----------------4~---------|
D |x|------------------------------|x|------------------------------|
           I'm just not sure its gonna work...



=>CHORUS<=
e |--------------------------------|
B |--------------------------------|
G |--2---4c-----13c-----11c----9c--|
D |--0---2c-----11c-----9c-----7c--| Times 2
  |--0---2c-----11c-----9c-----7c--|
D |--0---2c-----11c-----9c-----7c--|
     1st:You can burn it all...
     2nd:You can end it all...  




=>VERSE<=  (Whole thing times 2)
e |0|---------0--------------0------|---------0--------------0------|
B |7|-----7-----7--7-----7-----7--7-|-----7-----7--7-----7-----7--7-|
G |4|---4---4----4-----4---4----4---|---4---4----4-----4---4----4---|
D |6|-6--------------6--------------|-6--------------6--------------|
A |x|-------------------------------|-------------------------------|
D |x|-------------------------------|-------------------------------|
       1st:The killer's walking amongst us...
       2nd:You cradle over your mistakes...
e |x|---------0--------------0------|---------0--------------0------|
B |x|-----5-----5--5-----5-----5--5-|-------------------------------|
G |x|---4---4----4-----4---4----4---|-----4-----4--4-----4-----4--4-|
D |x|-6--------------6--------------|---2---2----2-----2---2-----2--| 
A |x|-------------------------------|-4--------------4--------------|
D |x|-------------------------------|-------------------------------|
       1st:Look around, they'll find...
       2nd:And every heart, you'll ever break...



=>PRECHORUS<=
e |0|---------0-----------------0--|0|---------0-----------------0--|
B |7|-----7-----------------7------|x|------------------------------|
G |4|---4---4----4---4----4---4----|4|-----4------4---4------4------|
D |6|-6------------6----6----------|2|---2---2------2------2---2----|
A |x|------------------------------|4|-4-----------------4----------|
D |x|------------------------------|x|------------------------------|
           I'm just not sure its gonna work...
e |0|---------0-----------------0--|0|---------0--------------------|
B |7|-----7-----------7-----7------|x|------------------------------|
G |4|---4---4----4------4-----4----|4|-----4------4---4-------------|
D |6|-6------------6------6--------|2|---2---2------2---------------|
A |x|------------------------------|4|-4-----------------4~---------|
D |x|------------------------------|x|------------------------------|
           I'm just not sure its gonna work...



=>CHORUS<=
e |--------------------------------|
B |--------------------------------|
G |--2---4c-----13c-----11c----9c--|
D |--0---2c-----11c-----9c-----7c--| Times 2
A |--0---2c-----11c-----9c-----7c--|
D |--0---2c-----11c-----9c-----7c--|
     1st:You can burn it all...
     2nd:You can end it all...  



=>BRIDGE<=
e |---0~---------------------------|---0~---------------------------|
B |---7~---------------------------|---0~---------------------------|
G |---4~---------------------------|---4~---------------------------|
D |---6~---------------------------|---2~---------------------------|
A |---x----------------------------|---4~---------------------------|
D |---x----------------------------|---x----------------------------|
       You Stumble...Through questions..That you can never answer...
e |---X----------------------------|--------------------------------|
B |---x----------------------------|--------------------------------|
G |---4~---------------------------|--------------------------------|
D |---4~---------------------------|---2----------------------------|
A |---2~---------------------------|---0----------------------------|
D |---x----------------------------|--------------------------------|
       That barrel......Is loaded.......So go and paint your target.



=>OUTRO<=
e |--------------------------------|
B |--------------------------------|
G |------4c-----13c-----11c----9c--|
D |------2c-----11c-----9c-----7c--| Times 3
A |------2c-----11c-----9c-----7c--|
D |------2c-----11c-----9c-----7c--|
     1st:You stumble...
     2nd:So again you stand...
     3rd:So again you stand...






***************************************************************************************






-=> 2nd Guitar Part - Alex Westaway <=-



=>INTRO<=
e |0|------------------------------|x|------------------------------|
B |7|------------REST--------------|0|---0~-------------------------|
G |4|------WHILE-1ST-GUITAR--------|4|---4~-------------------------|
D |6|---------PLAYS-INTRO----------|2|---2~-------------------------|
A |x|------------------------------|4|---4~-------------------------|
D |x|------------------------------|x|------------------------------|

e |0|------------------------------|x|------------------------------|
B |7|------------REST--------------|0|---0~-------------------------|
G |4|------WHILE-1ST-GUITAR--------|4|---4~-------------------------|
D |6|---------PLAYS-INTRO----------|2|---2~-------------------------|
A |x|------------------------------|4|---4~-------------------------|
D |x|------------------------------|x|------------------------------|




=>VERSE<= (strumming)
e |o|------------------------------|o|------------------------------|
B |o|------------------------------|o|------------------------------|
G |o|-----4c----4c----4c----4c-----|o|-----4c----4c----4c----4c-----|
D |o|-----2c----2c----2c----2c-----|o|-----2c----2c----2c----2c-----|
A |o|-----2c----2c----2c----2c-----|o|-----2c----2c----2c----2c-----|
D |o|-----2c----2c----2c----2c-----|o|-----2c----2c----2c----2c-----|

e |o|------------------------------|o|------------------------------|
B |o|------------------------------|o|------------------------------|
G |o|----13c---13c---13c---13c-----|o|-----9c----9c----9c----9c-----|
D |o|----11c---11c---11c---11c-----|o|-----7c----7c----7c----7c-----|
A |o|----11c---11c---11c---11c-----|o|-----7c----7c----7c----7c-----|
D |o|----11c---11c---11c---11c-----|o|-----7c----7c----7c----7c-----|




=>VERSE<= (strumming)
e |o|------------------------------|o|------------------------------|
B |o|------------------------------|o|------------------------------|
G |o|-----4c----4c----4c----4c-----|o|-----4c----4c----4c----4c-----|
D |o|-----2c----2c----2c----2c-----|o|-----2c----2c----2c----2c-----|
A |o|-----2c----2c----2c----2c-----|o|-----2c----2c----2c----2c-----|
D |o|-----2c----2c----2c----2c-----|o|-----2c----2c----2c----2c-----|
       1st:You hide it every time...
       2nd:You left another question...
e |o|------------------------------|o|------------------------------|
B |o|------------------------------|o|------------------------------|
G |o|----13c---13c---13c---13c-----|o|-----9c----9c----9c----9c-----|
D |o|----11c---11c---11c---11c-----|o|-----7c----7c----7c----7c-----|
A |o|----11c---11c---11c---11c-----|o|-----7c----7c----7c----7c-----|
D |o|----11c---11c---11c---11c-----|o|-----7c----7c----7c----7c-----|
       1st:Impatence waits around...
       2nd:Without even trying...



=>PRECHORUS<=
e |0|------------------------------|x|------------------------------|
B |7|-------------REST-------------|0|------------------------------|
G |4|----WHILE-1ST-GUITAR-PLAYS----|4|---4-4-4-4-4-4-4-4------------|
D |6|------------------------------|2|---2-2-2-2-2-2-2-2------------|
A |x|------------------------------|4|---2-2-2-2-2-2-2-2------------|
D |x|------------------------------|x|---2-2-2-2-2-2-2-2------------|
           I'm just not sure its gonna work...
e |0|------------------------------|x|------------------------------|
B |7|-------------REST-------------|0|------------------------------|
G |4|----WHILE-1ST-GUITAR-PLAYS----|4|---4-4-4-4-4-4-4-4------------|
D |6|------------------------------|2|---2-2-2-2-2-2-2-2------------|
A |x|------------------------------|4|---2-2-2-2-2-2-2-2------------|
D |x|------------------------------|x|---2-2-2-2-2-2-2-2------------|
           I'm just not sure its gonna work...



=>CHORUS<= (Pick or strum)
e |--------------------------------|
B |--------------------------------|
G |--2---4c-----13c-----11c----9c--|
D |--0---2c-----11c-----9c-----7c--| Times 2
  |--0---2c-----11c-----9c-----7c--|
D |--0---2c-----11c-----9c-----7c--|
     1st:You can burn it all...
     2nd:You can end it all...  



=>VERSE<= (strumming)
e |o|------------------------------|o|------------------------------|
B |o|------------------------------|o|------------------------------|
G |o|-----4c----4c----4c----4c-----|o|-----4c----4c----4c----4c-----|
D |o|-----2c----2c----2c----2c-----|o|-----2c----2c----2c----2c-----|
A |o|-----2c----2c----2c----2c-----|o|-----2c----2c----2c----2c-----|
D |o|-----2c----2c----2c----2c-----|o|-----2c----2c----2c----2c-----|
       1st:The killer's walking amongst us...
       2nd:You cradle over your mistakes...
e |o|------------------------------|o|------------------------------|
B |o|------------------------------|o|------------------------------|
G |o|----13c---13c---13c---13c-----|o|-----9c----9c----9c----9c-----|
D |o|----11c---11c---11c---11c-----|o|-----7c----7c----7c----7c-----|
A |o|----11c---11c---11c---11c-----|o|-----7c----7c----7c----7c-----|
D |o|----11c---11c---11c---11c-----|o|-----7c----7c----7c----7c-----|
       1st:Look around, they'll find...
       2nd:And every heart, you'll ever break...



=>PRECHORUS<=
e |o|------------------------------|o|------------------------------|
B |o|------------------------------|o|------------------------------|
G |o|-----4c----4c----4c----4c-----|o|-----4c----4c----4c----4c-----|
D |o|-----2c----2c----2c----2c-----|o|-----2c----2c----2c----2c-----|
A |o|-----2c----2c----2c----2c-----|o|-----2c----2c----2c----2c-----|
D |o|-----2c----2c----2c----2c-----|o|-----2c----2c----2c----2c-----|
           I'm just not sure its gonna work...
e |o|------------------------------|o|------------------------------|
B |o|------------------------------|o|------------------------------|
G |o|-----4c----4c----4c----4c-----|o|-----4c----4c----4c----4c-----|
D |o|-----2c----2c----2c----2c-----|o|-----2c----2c----2c----2c-----|
A |o|-----2c----2c----2c----2c-----|o|-----2c----2c----2c----2c-----|
D |o|-----2c----2c----2c----2c-----|o|-----2c----2c----2c----2c-----|
           I'm just not sure its gonna work...



=>CHORUS<= (Pick or strum)
e |--------------------------------|
B |--------------------------------|
G |--2---4c-----13c-----11c----9c--|
D |--0---2c-----11c-----9c-----7c--| Times 2
  |--0---2c-----11c-----9c-----7c--|
D |--0---2c-----11c-----9c-----7c--|
     1st:You can burn it all...
     2nd:You can end it all...  



=>BRIDGE<=
e |--------------------------------|--------------------------------|
B |--------------REST--------------|--------------REST--------------|
G |-----WHILE-1ST-GUITAR-PLAYS-----|-----WHILE-1ST-GUITAR-PLAYS-----|
D |--------------------------------|--------------------------------|
A |--------------------------------|--------------------------------|
D |--------------------------------|--------------------------------|
       You Stumble...Through questions..That you can never answer...
e |--------------------------------|--------------------------------|
B |--------------REST--------------|--------------REST--------------|
G |-----WHILE-1ST-GUITAR-PLAYS-----|-----WHILE-1ST-GUITAR-PLAYS-----|
D |--------------------------------|--------------------------------|
A |--------------------------------|--------------------------------|
D |--------------------------------|--------------------------------|
       That barrel......Is loaded.......So go and paint your target.



=>OUTRO<=
e |--------------------------------|
B |--------------------------------|
G |------4c-----4c-----11c----9c---|
D |------2c-----2c-----9c-----7c---| Times 3
A |------2c-----2c-----9c-----7c---|
D |------2c-----2c-----9c-----7c---|
     1st:You stumble...
     2nd:So again you stand...
     3rd:So again you stand...
Suggest correction new What's this?
You can suggest a correction to this tab. Community and Mods will review your correction and vote to approve or reject it.
comments
print report bad tab
8 comments total. Showing first comments.
0 reply
Nick-182 281 wrote on July 29 2005, 12:00 am

you emo emu

-1 reply
jonnysumner 259 wrote on April 30 2006, 06:30 am

that is shit! i ave played 4 years and neva seen a worse tab! it still has the same key as the original non acoustic u can change that like have dun wif out changing the melody which changes the whole song!

0 reply
Devastate 313 wrote on April 30 2006, 04:07 pm

you clearly dont have a clue, lmao.

I want to post or [tab]
guest
You may want to rate the tab now too:
select rating
Please do not post tabs as comments. Select "correction" instead!