Oops, an error
Loading. Please wait.

Paint Your Target Tab

version 1
version 1
8,054 views 6 this week
4 commentsread comments
1 2 3 4 5
accurate
x 7
add to favorites
launch autoscroll
font size
0
reset
how to read this tab
guitar tuner
Tab Pro tools
  • play this tab
  • loop segment
  • change instrument
  • show fretboard
  • metronome
×
Best way to learn
"Paint Your Target"
Autoscroll
slow
fast
+/-
esc
set tempo
stop
this is another song by charlie and the boys, kinda like what it is to burn by finch say 
m8s ash and callum!

any emails or questions: satan_666_jesus@hotmail.com

TUNING = low to high (DADBGe)

Intro CLEAN (Guitar 1)
(right chord, not sure bout picking)
E----------------------------------------------------|
B----------------------------------------------------|
G-------12----11----11------------12----11----11-----|
D----12----12----12----12------12----12----12----12--|
A-10------------------------10-----------------------|
D----------------------------------------------------|

E--------------------------------------------------------------|
B--------------------------------------------------------------|
G---------------9---8----8---------------------9---8----8------|
D------------9---9----9----9---------------9---9----9----9-----|
A--------------------------------------------------------------|
D---------7-----------------------------7----------------------|

E----------------------------------------------------|
B----------------------------------------------------|
G-------12----11----11------------12----11----11-----|
D----12----12----12----12------12----12----12----12--|
A-10------------------------10-----------------------|
D----------------------------------------------------|

E--------------------------------------------------------------|
B--------------------------------------------------------------|
G---------------9---8----8---------------------9---8----8------|
D------------9---9----9----9---------------9---9----9----9-----|
A--------------------------------------------------------------|
D---------7-----------------------------7----------------------|

Intro 2 (guitar 1 & 2)
DISTORTION
E---------------------------------------------------------------|
B---------------------44444444----------------------------------|
G----4444444444444444-22222222-12-12-12-12-12-12-12-12-99999999-|
D-0--2222222222222222-22222222-10-10-10-10-10-10-10-10-77777777-|
A-0--2222222222222222-22222222-10-10-10-10-10-10-10-10-77777777-|
D-0--2222222222222222-22222222-10-10-10-10-10-10-10-10-77777777-|

Verse 1 (guitar 1)
CLEAN
E----------------------------------------------------|
B----------------------------------------------------|
G-------12----11----11------------12----11----11-----|
D----12----12----12----12------12----12----12----12--|
A-10------------------------10-----------------------|
D----------------------------------------------------|

E--------------------------------------------------------------|
B--------------------------------------------------------------|
G---------------9---8----8---------------------9---8----8------|
D------------9---9----9----9---------------9---9----9----9-----|
A--------------------------------------------------------------|
D---------7-----------------------------7----------------------|

E----------------------------------------------------|
B----------------------------------------------------|
G-------12----11----11------------12----11----11-----|
D----12----12----12----12------12----12----12----12--|
A-10------------------------10-----------------------|
D----------------------------------------------------|

E--------------------------------------------------------------|
B--------------------------------------------------------------|
G---------------9---8----8---------------------9---8----8------|
D------------9---9----9----9---------------9---9----9----9-----|
A--------------------------------------------------------------|
D---------7-----------------------------7----------------------|

verse 1 changey thing
"i'm just not sure its gonna work"
 (guitar 2)                     (guitar 1)
..DISTORTION.......===============CLEAN=============================
E--------------------------------------------------------------------|
B--------------------------------------------------------------------|
G--44444444---------------9---8----8---------------------9---8----8--|
D--22222222------------9---9----9----9---------------9---9----9----9-|
A--22222222----------------------------------------------------------|
D--22222222---------7-----------------------------7------------------|

(guitar 2)                     (guitar 1)
..DISTORTION.......===============CLEAN=============================
E--------------------------------------------------------------------|
B--------------------------------------------------------------------|
G--44444444---------------9---8----8---------------------9---8----8--|
D--22222222------------9---9----9----9---------------9---9----9----9-|
A--22222222----------------------------------------------------------|
D--22222222---------7-----------------------------7------------------|

Chorus   (guitar 1 & 2)
DISTORTION
E---------------------------------------------------------------|
B---------------------44444444----------------------------------|
G----4444444444444444-22222222-12-12-12-12-12-12-12-12-99999999-|
D-0--2222222222222222-22222222-10-10-10-10-10-10-10-10-77777777-|
A-0--2222222222222222-22222222-10-10-10-10-10-10-10-10-77777777-|
D-0--2222222222222222-22222222-10-10-10-10-10-10-10-10-77777777-|

E---------------------------------------------------------------|
B---------------------44444444----------------------------------|
G----4444444444444444-22222222-12-12-12-12-12-12-12-12-99999999-|
D-0--2222222222222222-22222222-10-10-10-10-10-10-10-10-77777777-|
A-0--2222222222222222-22222222-10-10-10-10-10-10-10-10-77777777-|
D-0--2222222222222222-22222222-10-10-10-10-10-10-10-10-77777777-|

Verse 2 (guitar 1)
CLEAN
E----------------------------------------------------|
B----------------------------------------------------|
G-------12----11----11------------12----11----11-----|
D----12----12----12----12------12----12----12----12--|
A-10------------------------10-----------------------|
D----------------------------------------------------|

E--------------------------------------------------------------|
B--------------------------------------------------------------|
G---------------9---8----8---------------------9---8----8------|
D------------9---9----9----9---------------9---9----9----9-----|
A--------------------------------------------------------------|
D---------7-----------------------------7----------------------|

E----------------------------------------------------|
B----------------------------------------------------|
G-------12----11----11------------12----11----11-----|
D----12----12----12----12------12----12----12----12--|
A-10------------------------10-----------------------|
D----------------------------------------------------|

E--------------------------------------------------------------|
B--------------------------------------------------------------|
G---------------9---8----8---------------------9---8----8------|
D------------9---9----9----9---------------9---9----9----9-----|
A--------------------------------------------------------------|
D---------7-----------------------------7----------------------|

Verse 2 (guitar 2)
DISTORTION
E----------------------------------------------------------------|
B----------------------------------------------------------------|
D----------------------------------------------------------------|
G----------------------------------------------------------------|
D--2222222222222222-22222222-10-10-10-10-10-10-10-10-77777777----|
A--2222222222222222-22222222-10-10-10-10-10-10-10-10-77777777----|
D--2222222222222222-22222222-10-10-10-10-10-10-10-10-77777777----|
<<.......................Palm Muted...........................>>

E----------------------------------------------------------------|
B----------------------------------------------------------------|
D----------------------------------------------------------------|
G----------------------------------------------------------------|
D--2222222222222222-22222222-10-10-10-10-10-10-10-10-77777777----|
A--2222222222222222-22222222-10-10-10-10-10-10-10-10-77777777----|
D--2222222222222222-22222222-10-10-10-10-10-10-10-10-77777777----|
<<.......................Palm Muted...........................>>


verse 1 changey thing
"i'm just not sure its gonna work"
 (guitar 2)                     (guitar 1)
..DISTORTION.......===============CLEAN=============================
E--------------------------------------------------------------------|
B--------------------------------------------------------------------|
G--44444444---------------9---8----8---------------------9---8----8--|
D--22222222------------9---9----9----9---------------9---9----9----9-|
A--22222222----------------------------------------------------------|
D--22222222---------7-----------------------------7------------------|

(guitar 2)                     (guitar 1)
..DISTORTION.......===============CLEAN=============================
E--------------------------------------------------------------------|
B--------------------------------------------------------------------|
G--44444444---------------9---8----8---------------------9---8----8--|
D--22222222------------9---9----9----9---------------9---9----9----9-|
A--22222222----------------------------------------------------------|
D--22222222---------7-----------------------------7------------------|

Chorus   (guitar 1 & 2)
DISTORTION

E---------------------------------------------------------------|
B---------------------44444444----------------------------------|
G----4444444444444444-22222222-12-12-12-12-12-12-12-12-99999999-|
D-0--2222222222222222-22222222-10-10-10-10-10-10-10-10-77777777-|
A-0--2222222222222222-22222222-10-10-10-10-10-10-10-10-77777777-|
D-0--2222222222222222-22222222-10-10-10-10-10-10-10-10-77777777-|

E---------------------------------------------------------------|
B---------------------44444444----------------------------------|
G----4444444444444444-22222222-12-12-12-12-12-12-12-12-99999999-|
D-0--2222222222222222-22222222-10-10-10-10-10-10-10-10-77777777-|
A-0--2222222222222222-22222222-10-10-10-10-10-10-10-10-77777777-|
D-0--2222222222222222-22222222-10-10-10-10-10-10-10-10-77777777-|

Bridge
DISTORTION
(guitar 1 & 2)
E--------------------------------------------------------------|
B--------------------------------------------------------------|
G--------------------------------------------------------------|
D-1-1-1-1-2-2-1-1--1-1-1-1-2-2-21-1-1-1-2-2-1-1--1-1-1-1-2-2-2-|
A-1-1-1-1-2-2-1-1--1-1-1-1-2-2-21-1-1-1-2-2-1-1--1-1-1-1-2-2-2-|
D-1-1-1-1-2-2-1-1--1-1-1-1-2-2-21-1-1-1-2-2-1-1--1-1-1-1-2-2-2-|
<<.......................Palm Muted...........................>>

Bridge Part 2
CLEAN
(guitar 1 & 2)
"you stumble, through questions"
E---------------------------------|
B--------------------4------------|
G--------4-------------------12---|
D------2--------2---------10------|
A----2--------2---------10--------|
D--2--------2---------10----------|


"that barrell is loaded..........so go and paint your target"
CLEAN                  DISTORTION
(guitar 1 & 2)
E----------------        -----|
B----------------        -----|
G------------12--        --9--|
D---------10-----        --7--|
A------10--------        --7--|
D---10-----------        --7--|

Bridge part 3  (guitar 1 & 2)
DISTORTION

E---------------------------------------------------------------|
B---------------------44444444----------------------------------|
G----4444444444444444-22222222-12-12-12-12-12-12-12-12-99999999-|
D-0--2222222222222222-22222222-10-10-10-10-10-10-10-10-77777777-|
A-0--2222222222222222-22222222-10-10-10-10-10-10-10-10-77777777-|
D-0--2222222222222222-22222222-10-10-10-10-10-10-10-10-77777777-|

Outro
E---------------------------------------------------------------|
B---------------------44444444----------------------------------|
G----4444444444444444-22222222-12-12-12-12-12-12-12-12-99999999-|
D-0--2222222222222222-22222222-10-10-10-10-10-10-10-10-77777777-|
A-0--2222222222222222-22222222-10-10-10-10-10-10-10-10-77777777-|
D-0--2222222222222222-22222222-10-10-10-10-10-10-10-10-77777777-|
<<.......................Palm Muted...........................>>
comments
print report bad tab
4 comments total. Showing first comments.
0 reply
Devastate wrote on June 16 2005, 12:00 am

maybe it sounds like finch because you're playing it completely wrong...

0 reply
Devastate wrote on June 16 2005, 12:00 am

maybe it sounds like finch because you're playing it completely wrong...

0 reply
tombotownusa wrote on June 19 2005, 12:00 am

this tab is the worst fightstar tab ive seen for the intro

I want to post or [tab]
guest
You may want to rate the tab now too:
select rating
Please do not post tabs as comments. Select "correction" instead!