Oops, an error
Loading. Please wait.

Paint Your Target Tab

version 3
version 3
583 views 1 this week
no commentswrite comment
1 2 3 4 5
accurate
x 4
add to favorites
launch autoscroll
font size
0
reset
how to read this tab
guitar tuner
Tab Pro tools
  • play this tab
  • loop segment
  • change instrument
  • show fretboard
  • metronome
×
Best way to learn
"Paint Your Target"
Autoscroll
slow
fast
+/-
esc
set tempo
stop
Contributor
This is my first tab but i think its all correct. If you dont think so email me Jack_Scott10@hotmail.com

Paint your target
Fightstar

Drop d tuning
(e)
(B)
(G)
(D)
(A)
(D)


Intro part I
e|----------------------------------------------------------------------|
B|----------------------------------------------------------------------|
G|----------------------------------------------------------------------|
D|-----16--14--16-14----16--14--16-14------11--13-11-------11--13-11----|
A|---14--14--14-------14--14--14---------11--11-----11---11--11-----11--|
D|-14---------------14-----------------11-------------11--------------11|

part II
e|---------------------------------------------------------------------|
B|---------------------------------------------------------------------|
G|---------------------------------------------------------------------|
D|2-2-2-2-2-2-2-2-2-2-2-2-2-2-2-2-11-11-11-11-11-11-11-11-7-7-7-7-7-7-0|
A|2-2-2-2-2-2-2-2-2-2-2-2-2-2-2-2-11-11-11-11-11-11-11-11-7-7-7-7-7-7-0|
D|2-2-2-2-2-2-2-2-2-2-2-2-2-2-2-2-11-11-11-11-11-11-11-11-7-7-7-7-7-7-0|x2

guitar 2
e|---------------------------------------------------------------------|
B|---------------------------------------------------------------------|
G|---------------------------------------------------------------------|
D|2-2-2-2-2-2-2-2-2-2-2-2-13-13-13-13-11-11-11-11---------7-----------0|
A|2-2-2-2-2-2-2-2-2-2-2-2-13-13-13-13-11-11-11-11---------7-----------0|
D|2-2-2-2-2-2-2-2-2-2-2-2-13-13-13-13-11-11-11-11---------7-----------0|x2

Verse
e|----------------------------------------------------------------------|
B|----------------------------------------------------------------------|
G|----------------------------------------------------------------------|
D|-----16--14--16-14----16--14--16-14----16--14--16-14----16--14--16-14-|
A|---14--14--14-------14--14--14-------14--14--14-------14--14--14------|
D|-14---------------14---------------14---------------14----------------|

e|----------------------------------------------------------------------|
B|----------------------------------------------------------------------|
G|----------------------------------------------------------------------|
D|----11--13-11-------11--13-11----------7--7--7------7--7--7-----------|
A|--11--11-----11---11--11-----11------7--7--7--7----7--7--7--7---------|
D|11-------------11--------------11--7-------------7--------------------|x2

  I'm just not sure its gonna work
e|-----------------------------------------------|
B|-----------------------------------------------|
G|-----------------------------------------------|
D|2-2-2-2-2-2-2-----11--13-11-------11--13-11----|
A|2-2-2-2-2-2-2---11--11-----11---11--11-----11--|
D|2-2-2-2-2-2-2-11-------------11--------------11|x2

Chorus
e|-----------------------------------------------------------------------|
B|-----------------------------------------------------------------------|
G|-----------------------------------------------------------------------|
D|0--2-2-2-2-2-2-2-2-11-11-11-11-11-11-11-11-9-9-9-9-9-9-9-9--7-7-7-7-7-7|
A|0--2-2-2-2-2-2-2-2-11-11-11-11-11-11-11-11-9-9-9-9-9-9-9-9--7-7-7-7-7-7|
D|0--2-2-2-2-2-2-2-2-11-11-11-11-11-11-11-11-9-9-9-9-9-9-9-9--7-7-7-7-7-7|x2

Bridge
e|-----------------------------------------------------------|
B|-----------------------------------------------------------|
G|-----------------------------------------------------------|
D|2-2-2-2-2-3-0-2--2-2-2-2-3-0-2-0-0-0-0-2-3-0--0-0-0-0-2-3-2|
A|2-2-2-2-2-3-0-2--2-2-2-2-3-0-2-0-0-0-0-2-3-0--0-0-0-0-2-3-2|
D|2-2-2-2-2-3-0-2--2-2-2-2-3-0-2-0-0-0-0-2-3-0--0-0-0-0-2-3-2|x2

  you stumble through questions, that you can never answer
e|---------------------------------------------------------|
B|---------------------------------------------------------|
G|---------------------------------------------------------|
D|--14----------------------------11-----------------------|
A|-14----------------------------11------------------------|
E|14----------------------------11-------------------------|

  the barrel is loaded, so go and paint your target
e|---------------------------------------------------------|
B|---------------------------------------------------------|
G|---------------------------------------------------------|
D|--9-------------------7----------------------------------|
A|-9--------------------7------(bass)----------------------|
E|9---------------------7---------0------------------------|

Chorus x 1.5

Finish on
e|---
B|---
G|---
D|-7-
A|-7-
D|-7-

Order

Intro
Verse
Chorus
Verse
Chorus
Bridge
Chorus x 1.5
comments
print report bad tab
I want to post or [tab]
guest
You may want to rate the tab now too:
select rating
Please do not post tabs as comments. Select "correction" instead!