Oops, an error
Loading. Please wait.

Paint Your Target bass

version 4
version 4
409 views 1 this week
6 commentsread comments
1 2 3 4 5
1 last vote to show rating
add to favorites
×
Save as Personal and add changes to this tab that will be seen only by you. Learn more ›
×
You can save this tab as Personal to edit and correct it or add notes. All changes will be seen only by you. Learn more »
launch autoscroll
font size
0
reset
guitar tuner
edit
Autoscroll
slow
fast
+/-
esc
set tempo
stop
\ - slide down
/ - slide down
h - hammer-on
~ - let ring
(n) - number of times note/bar is played

Intro
G|------------------------------|
D|------------------------------|
A|------------REST--------------|
D|------------------------------|

G|------------------------------|
D|------------------------------|
A|-11~---11~---14\4~---4~-------|
D|------------------------------|

G|--------------------------------|
D|--------------------------------|
A|--------------------------------|
D|-2-(x32)--11-(x12)-13\-7-(12x)--|

G|-----------------------------------|
D|-----------------------------------|
A|-----------------------------------|
D|-0~-2-(x32)--11-(x12)-13\-7-(16x)--|

Verse
G|------------------------------------------------------------|
D|------------------------------------------------------------|
A|------------------------------------------------------------| [11's not 1's!]
D|-222222--222--222222--222--111111111111--111111--777777-777-|

G|------------------------------------------------------------|
D|------------------------------------------------------------|
A|------------------------------------------------------------| 
D|-222222--222--222222--222--111111111111--111111--777777-777-|

Pre-Chorus
G|-----------------------|
D|-------------9-7-------|
A|-----------5-----5-7---|
D|-2-(16x)---------------|
I'm just not sure...

G|-------------------------|
D|-------------9-7---------|
A|-----------5-----5-7-----|
D|-2-(16x)-------------0~--|

Chorus
G|---------------------------------------------|
D|---------------------------------------------|
A|---------------------------------------------| (Times 2)
D|-2-(16x)--11-(x12)--13\-9-(12x)--16\-7-(16x)-|


Verse
G|------------------------------------------------------------|
D|------------------------------------------------------------|
A|------------------------------------------------------------| (11's not 1's!)
D|-222222--222--222222--222--111111111111--111111--777777-777-|

G|------------------------------------------------------------|
D|------------------------------------------------------------|
A|------------------------------------------------------------| 
D|-222222--222--222222--222--111111111111--111111--777777-777-|

Pre-Chorus
G|-----------------------|
D|-------------9-7-------|
A|-----------5-----5-7---|
D|-2-(16x)---------------|
I'm just not sure...

G|-------------------------|
D|-------------9-7---------|
A|-----------5-----5-7-----|
D|-2-(16x)-------------0~--|

Chorus
G|---------------------------------------------|
D|---------------------------------------------|
A|---------------------------------------------| (Times 2)
D|-2-(16x)--11-(x12)--13\-9-(12x)--16\-7-(16x)-|

Bridge
G|-----------------------------------------------------------------------|
D|-----------------------------------------------------------------------|
A|-----------------------------------------------------------------------|
D|-22222222-22222--0-00000000-00000-2-22222222-22222-0-00000000-0000-3-0-|

G|------------------------------------|
D|------------------------------------|
A|-11~------4~------2~----------------|
D|--------------------------7----0~---|
You stumble, through questions...

G|---------------------------------------------|
D|---------------------------------------------|
A|---------------------------------------------|
D|-2-(16x)--11-(x12)--13\-9-(12x)--16\-7-(16x)-|

Outro
G|---------------------------------------------|
D|---------------------------------------------|
A|---------------------------------------------|
D|-2-(16x)--11-(x12)--13\-9-(12x)--16\-7-(16x)-|

G|--------------------------------|
D|--------------------------------|
A|--------------------------------|
D|-2-(16x)--11-(x16)--9-(16x)--7~-|


            
            
Suggest correction
Creating personal tab
Creating personal tab
You can edit any tab online and save it as your Personal.

You can edit, replace or remove any tab part or add personal notes – all changes will be seen only by you.

Personal tabs can be accessed anytime from any device, even offline.
Learn more »
Give kudos to tab author, rate the tab!
1 2 3 4 5
comments
print report bad tab
6 comments total. Showing first comments.
0 reply
jonnysumner 142 May 02, 2006 01:30 AM

bridge wrong bud... pre chorus is ok but off m8!

0 reply
schecter006 1,198 May 02, 2006 05:58 AM

sorry mate i gotta disagree, my bassist plays this tab in our band, and it sounds exactly right except the bridge.

0 reply
Warwick_Bassist 10 Aug 25, 2006 04:02 AM

i think the prechorus is:
G-------------9---8---6------
D-----------9---9---9---9----
A----------------------------
D-2222222/7------------------

guest
Wanna post a correction for this tab? Suggest correction