Oops, an error
Loading. Please wait.

Paint Your Target Tab

version 4
version 4
616 views 1 this week
4 commentsread comments
1 2 3 4 5
x 4
add to favorites
launch autoscroll
font size
0
reset
how to read this tab
guitar tuner
Autoscroll
slow
fast
+/-
esc
set tempo
stop
Help us to improve Ultimate-Guitar.com Take our survey!
×
Author
-------------------------------------------------------------------------------
                             PAINT YOUR TARGET - Fightstar
-------------------------------------------------------------------------------
Tabbed by: Jay Lee 
Email:     JayLee1459@hotmail.com

Tuning: Drop D

I dont think this tab is perfect, but i know its very close and much
better than the other stuff people have been coming up with for this tab.

LISTEN TO THE SONG TO FIGURE OUT THE RHYTHEM!!

                                  Intro

Guitar 1 (Clean) 

e|-----------0---------------0-----------------0---------------0-------------|
B|-------7---------------7---------------------------------------------------|
G|-----4---4---4---4---4---4---4---4-------4-----4---4-----4-----4---4-------|
D|---6-----------6---6-----------6-------2---2-----2-----2---2-----2---------|
A|-------------------------------------4---------------4---------------------|
D|---------------------------------------------------------------------------|

e|-----------0---------------0-----------------0-----------------------------|
B|-------7---------------7---------------------------------------------------|
G|-----4---4---4---4---4---4---4---4-------4-----4---4-----------------------|
D|---6-----------6---6-----------6-------2---2-----2-------------------------|
A|-------------------------------------4---------------4---------------------|
D|---------------------------------------------------------------------------|

Guitar 2 (Clean)

e|---------------------------------------------------------------------------|
B|---------------------------------------------------------------------------|
G|---------------------------------------------------------------------------|
D|--6----------6/9------------------x2---------------------------------------|
A|---------------------------------------------------------------------------|
D|------------------11-------------------------------------------------------|

Guitar 1 (Distortion)

e|---------------------------------------------------------------------------|
B|---------------------------------------------------------------------------|
G|---4--8--13--9-----4--8--13--9---------------------------------------------|
D|---2--x--11--7--0--2--x--11--7---------------------------------------------|
A|---2--6--11--7--0--2--6--11--7---------------------------------------------|
D|---2-----11--7--0--2-----11--7---------------------------------------------|

Guitar 2 (Distortion)

e|---------------------------------------------------------------------------|
B|---------------------------------------------------------------------------|
G|-----6--2------------------------------------------------------------------|
D|--2--6--2------------------------------------------------------------------|
A|--2--4--0------------------------------------------------------------------|
D|--2------------------------------------------------------------------------|


                                  Verse 1

Guitar 1 (Clean)<<
            
                            
Suggest correction
comments
print report bad tab
4 comments total. Showing first comments.
0 reply
C3_Rocka 11 Aug 22, 2005 12:00 AM

Hmmmm........interesting. Good intro, but I'm not too sure if this BANG on. Oh well. Good luck all.

1st comment, mofo.

0 reply
prs-player128 15 Aug 31, 2005 12:00 AM

this is pretty good cos i seen um play it and your version looks similar to how they play it

0 reply
schecter006 1,198 May 30, 2006 07:46 AM

seems a bit off.

guest
You may want to rate the tab now too:
select rating
Wanna post a correction for this tab? Suggest correction