Oops, an error
Loading. Please wait.

Shinji Ikari Tab

version 1
version 1

Whole song

Interactive

1,689 views 6 this week
1 commentread comment
1 2 3 4 5
x 3
add to favorites
launch autoscroll
font size
0
reset
how to read this tab
guitar tuner
Autoscroll
slow
fast
+/-
esc
set tempo
stop
Help us to improve Ultimate-Guitar.com Take our survey!
×
Author
Difficulty
novice
This is one of my first tabs so if it's a little off just tell me
But no one else has put tab up for this song so it has too be done!!


Main riff
e-----------------------------|
B-----------------------------|
G----------6---6---------3----|
D--------4---4---4-------4----|
A------6------------6----4----|
E-----------------------------|


Solo (alternate picking)
e-----------------------------|
B---------14-----12---11------|
G----6------------------------|
D-----------------------------|
A-----------------------------|
E-----------------------------|

Ending chords

e----------------------------|
B----------------------------|
G-----4--3-------------------|
D-----4--3-----4-------------|
A-----2--1-----4-------------|
E--------------2-------------|

Any corrections are very welcome :)
Suggest correction
Give kudos to tab author, rate the tab!
1 2 3 4 5
comments
print report bad tab
1 comment total.
-1 reply
settingsun123 10 Feb 15, 2010 12:18 PM

Sounds great but I think the ending of the main riff is slightly off.

I think it sounds more like:

e-----------------------------|
B-----------------------------|
G----------6---6---------4----|
D--------4---4---4-------4----|
A------6------------6----2----|
E-----------------------------|

The rest sounds pretty accurate but I think there's some other guitar parts in the second chorus and ending missing.

A good job though, well done.

guest
You may want to rate the tab now too:
select rating
Wanna post a correction for this tab? Suggest correction