Oops, an error
Loading. Please wait.

Sleep Well Tonight tab

version 1
version 1

Whole song

Interactive

6,409 views 3 this week
9 commentsread comments
1 2 3 4 5
1 last vote to show rating
add to favorites
×
Save as Personal and add changes to this tab that will be seen only by you. Learn more ›
×
You can save this tab as Personal to edit and correct it or add notes. All changes will be seen only by you. Learn more »
launch autoscroll
font size
0
reset
how to read this tab
guitar tuner
edit
Autoscroll
slow
fast
+/-
esc
set tempo
stop
Author
Difficulty
Tabbed by: Ciaran Plummer
Email: just_ciaran@hotmail.co.uk

Tuning: dodgy as hell, lol. f/g#/c/C#/G#/C#
        put the thickest three strings into drop C#
        then put the thinnest three half a step above standard.
        so 
        6th: 1 and a half steps down
        5th: half a step down
        4th: half a step down
        3rd: half a step up
        2nd: half a step up
        1st: half a step up

| /  slide up
| \  slide down
| h  hammer-on
| p  pull-off
| ~  let-ring
| n  strum the strings above the nut (harmonic)

<>

Intro
|-------------------------------------|
|-------------------------------------|
|-------------------------------------|
|-4~----0~--------4~--------0~--------|
|-4~----0~--------4~--------0~--------|
|-4~----0~--------4~--------0~--------|

Pre-Verse
|------0-0--------0-0--------0-0--------0-0--|
|-------0-0--------0-0--------0-0--------0-0-|
|---0----------0----------0----------0-------|
|-4---------0----------4----------0----------| (Times 2)
|--------------------------------------------|
|--------------------------------------------|

|-0~----0~----0~----|
|-0~----0~----0~----|
|-0~----0~----0~----|
|-4~----4~----4~----|
|-------------------|
|-------------------|

Verse
|-------------------------------------|
|-------------------------------------|
|-------------------------------------|
|-4~----0~--------4~--------0~--------| (Times 2)
|-4~----0~--------4~--------0~--------|
|-4~----0~--------4~--------0~--------|

|------0-0--------0-0--------0-0--------0-0--|
|-------0-0--------0-0--------0-0--------0-0-|
|---0----------0----------0----------0-------|
|-4---------0----------4----------0----------|
|--------------------------------------------|
|--------------------------------------------|

|-------------------------------------|
|-------------------------------------|
|-------------------------------------|
|-4~----0~--------4~--------0~--------|
|-4~----0~--------4~--------0~--------|
|-4~----0~--------4~--------0~--------|

|------0-0--------0-0--------0-0--------0-0--|
|-------0-0--------0-0--------0-0--------0-0-|
|---0----------0----------0----------0-------|
|-4---------0----------4----------0----------|
|--------------------------------------------|
|--------------------------------------------|

|-------------------------------------|
|-------------------------------------|
|-------------------------------------|
|-4~----0~--------4~--------0~--------|
|-4~----0~--------4~--------0~--------|
|-4~----0~--------4~--------0~--------|

Pre-Chorus
|---------------------------------------------------|
|---------------------------------------------------|
|---------------------------------------4c----7c----|
|-4p2-2-2-2-2-2-2-2--2p0-0-0-0-0-0-0-0--4c----7c----|
|-4p2-2-2-2-2-2-2-2--2p0-0-0-0-0-0-0-0--4c----7c----|
|-4p2-2-2-2-2-2-2-2--2p0-0-0-0-0-0-0-0--4c----7c----|
|     . . . . . . .      . . . . . . .

Chorus
|-----------------------------------------------|
|-----------------------------------------------|
|-----------------------------------------------|
|-0-0-0-0-0-0--0-0--0-0--0-0-0-0-0-0--0-0--0-0--|
|-0-0-0-0-0-0--0-0--0-0--0-0-0-0-0-0--0-0--0-0--|
|-0-0-0-0-0-0--0-0--0-0--0-0-0-0-0-0--0-0--0-0--|
| . . . . . .  . .  . .  . . . . . .  . .  . .

|------------------------------------|
|------------------------------------|
|------------------------7c----2c----|
|-4-4-4-4-4-4--4-4--4-4--7c----2c----|
|-4-4-4-4-4-4--4-4--4-4--7c----2c----|
|-4-4-4-4-4-4--4-4--4-4--7c----2c----|
| . . . . . .  . .  . .  

|-----------------------------------------------|
|-----------------------------------------------|
|-----------------------------------------------|
|-0-0-0-0-0-0--0-0--0-0--0-0-0-0-0-0--0-0--0-0--|
|-0-0-0-0-0-0--0-0--0-0--0-0-0-0-0-0--0-0--0-0--|
|-0-0-0-0-0-0--0-0--0-0--0-0-0-0-0-0--0-0--0-0--|
| . . . . . .  . .  . .  . . . . . .  . .  . .

|------------------------------------|
|------------------------------------|
|------------------------7c----2c----|
|-4-4-4-4-4-4--4-4--4-4--7c----2c----|
|-4-4-4-4-4-4--4-4--4-4--7c----2c----|
|-4-4-4-4-4-4--4-4--4-4--7c----2c----|
| . . . . . .  . .  . .  

After-Chorus
|--------------------0---------------------------------|
|----------------------0---0---------------------------|
|--------7---------------0---------7-------------------|
|-0-0--0-7--0-0--0-0--------0-0--0-7--0-0--0-0--4h7p0--|
|-0-0--0-7--0-0--0-0--------0-0--0-7--0-0--0-0--4h7p0--|
|-0-0--0-7--0-0--0-0--------0-0--0-7--0-0--0-0--4h7p0--|
| . .  .    . .  . .        . .  .    . .  . .

Pre-Verse
|------0-0--------0-0--------0-0--------0-0--|
|-------0-0--------0-0--------0-0--------0-0-|
|---0----------0----------0----------0-------|
|-4---------0----------4----------0----------| (Times 2)
|--------------------------------------------|
|--------------------------------------------|

|-0~----0~----0~----|
|-0~----0~----0~----|
|-0~----0~----0~----|
|-4~----4~----4~----|
|-------------------|
|-------------------|

Verse
|-------------------------------------|
|-------------------------------------|
|-------------------------------------|
|-4~----0~--------4~--------0~--------|
|-4~----0~--------4~--------0~--------|
|-4~----0~--------4~--------0~--------|

|------0-0--------0-0--------0-0--------0-0--|
|-------0-0--------0-0--------0-0--------0-0-|
|---0----------0----------0----------0-------|
|-4---------0----------4----------0----------|
|--------------------------------------------|
|--------------------------------------------|

|-------------------------------------|
|-------------------------------------|
|-------------------------------------|
|-4~----0~--------4~--------0~--------|
|-4~----0~--------4~--------0~--------|
|-4~----0~--------4~--------0~--------|

|------0-0--------0-0--------0-0--------0-0--|
|-------0-0--------0-0--------0-0--------0-0-|
|---0----------0----------0----------0-------|
|-4---------0----------4----------0----------|
|--------------------------------------------|
|--------------------------------------------|

|-------------------------------------|
|-------------------------------------|
|-------------------------------------|
|-4~----0~--------4~--------0~--------|
|-4~----0~--------4~--------0~--------|
|-4~----0~--------4~--------0~--------|

Pre-Chorus
|---------------------------------------------------|
|---------------------------------------------------|
|---------------------------------------4c----7c----|
|-4p2-2-2-2-2-2-2-2--2p0-0-0-0-0-0-0-0--4c----7c----|
|-4p2-2-2-2-2-2-2-2--2p0-0-0-0-0-0-0-0--4c----7c----|
|-4p2-2-2-2-2-2-2-2--2p0-0-0-0-0-0-0-0--4c----7c----|
|     . . . . . . .      . . . . . . .

Chorus
|-----------------------------------------------|
|-----------------------------------------------|
|-----------------------------------------------|
|-0-0-0-0-0-0--0-0--0-0--0-0-0-0-0-0--0-0--0-0--|
|-0-0-0-0-0-0--0-0--0-0--0-0-0-0-0-0--0-0--0-0--|
|-0-0-0-0-0-0--0-0--0-0--0-0-0-0-0-0--0-0--0-0--|
| . . . . . .  . .  . .  . . . . . .  . .  . .

|------------------------------------|
|------------------------------------|
|------------------------7c----2c----|
|-4-4-4-4-4-4--4-4--4-4--7c----2c----|
|-4-4-4-4-4-4--4-4--4-4--7c----2c----|
|-4-4-4-4-4-4--4-4--4-4--7c----2c----|
| . . . . . .  . .  . .  

|-----------------------------------------------|
|-----------------------------------------------|
|-----------------------------------------------|
|-0-0-0-0-0-0--0-0--0-0--0-0-0-0-0-0--0-0--0-0--|
|-0-0-0-0-0-0--0-0--0-0--0-0-0-0-0-0--0-0--0-0--|
|-0-0-0-0-0-0--0-0--0-0--0-0-0-0-0-0--0-0--0-0--|
| . . . . . .  . .  . .  . . . . . .  . .  . .

|------------------------------------|
|------------------------------------|
|------------------------7c----2c----|
|-4-4-4-4-4-4--4-4--4-4--7c----2c----|
|-4-4-4-4-4-4--4-4--4-4--7c----2c----|
|-4-4-4-4-4-4--4-4--4-4--7c----2c----|
| . . . . . .  . .  . .  

Break
|------0-0--------0-0--------0-0--------0-0--|
|-------0-0--------0-0--------0-0--------0-0-|
|---0----------0----------0----------0-------|
|-4---------0----------4----------0----------| (Times 2)
|--------------------------------------------|
|--------------------------------------------|

|------0-0--------0-0--0~-----------------0n--------|
|-------0-0--------0-0-0~-----------------0n--------|
|---0----------0-------0~-----------------0n--------|
|-4---------4----------4~-----------------0n--------| 
|-----------------------------------------0n--------|
|-----------------------------------------0n--------|

Bridge
|-------------|
|-------------|
|-2c----2c----|
|-2c----2c----|
|-2c----2c----|
|-2c----2c----|

|-----------------------------------------------------------|
|-----------------------------------------------------------|
|---------7----------7------7----------7----------7------7--|
|-0-0-0-0-7--0-0-0-0-7--0-0-7--0-0-0-0-7--0-0-0-0-7--0-0-7--|
|-0-0-0-0-7--0-0-0-0-7--0-0-7--0-0-0-0-7--0-0-0-0-7--0-0-7--|
|-0-0-0-0-7--0-0-0-0-7--0-0-7--0-0-0-0-7--0-0-0-0-7--0-0-7--|
| . . . .    . . . .    . .    . . . .    . . . .    . .

|-------------------------------------------------------------|
|-------------------------------------------------------------|
|-------------------------------------------------------------|
|-----6---6-----4---4-----4h6p4-----6---6-----4---4-----4h6p4-|
|-------------------------------------------------------------|
|-4-4---4---4-4---4---4-4-------4-4---4---4-4---4---4-4-------|
| . .   .   . .   .   . .       . .   .   . .   .   . .

|-----------------------------------------------------------|
|-----------------------------------------------------------|
|---------7----------7------7----------7----------7------7--|
|-0-0-0-0-7--0-0-0-0-7--0-0-7--0-0-0-0-7--0-0-0-0-7--0-0-7--|
|-0-0-0-0-7--0-0-0-0-7--0-0-7--0-0-0-0-7--0-0-0-0-7--0-0-7--|
|-0-0-0-0-7--0-0-0-0-7--0-0-7--0-0-0-0-7--0-0-0-0-7--0-0-7--|
| . . . .    . . . .    . .    . . . .    . . . .    . .

|------------------------------------------------|
|------------------------------------------------|
|------------------------------------------------|
|-----6---6-----4---4-----4h6p4-----6---6-----4--|
|------------------------------------------------|
|-4-4---4---4-4---4---4-4-------4-4---4---4-4----|
| . .   .   . .   .   . .       . .   .   . .

Outro
|-------------------------------|
|-------------------------------|
|-------------------------------|
|-0c------------4c------7c------|
|-0c------------4c------7c------|
|-0c------------4c------7c------|

|------0-0--------0-0--------0-0--------0-0--|
|-------0-0--------0-0--------0-0--------0-0-|
|----9-----------9---------9----------9------|
|--7-----------7---------7----------7--------|
|--------------------------------------------|
|--------------------------------------------|

|-----------------------------------------------|
|-----------------------------------------------|
|-----------------------------------------------|
|-4-4-4-4-4-4--4-4--4-4--4-4-4-4-4-4--4-4--7-7--|
|-4-4-4-4-4-4--4-4--4-4--4-4-4-4-4-4--4-4--7-7--|
|-4-4-4-4-4-4--4-4--4-4--4-4-4-4-4-4--4-4--7-7--|

|------0-0--------0-0--------0-0--------0-0--|
|-------0-0--------0-0--------0-0--------0-0-|
|----9-----------9---------9----------9------|
|--7-----------7---------7----------7--------|
|--------------------------------------------|
|--------------------------------------------|

|-----------------------------------------------|
|-----------------------------------------------|
|-----------------------------------------------|
|-4-4-4-4-4-4--4-4--4-4--4-4-4-4-4-4--4-4--7-7--|
|-4-4-4-4-4-4--4-4--4-4--4-4-4-4-4-4--4-4--7-7--|
|-4-4-4-4-4-4--4-4--4-4--4-4-4-4-4-4--4-4--7-7--|

|------0-0--------0-0--------0-0--------0-0--|
|-------0-0--------0-0--------0-0--------0-0-|
|----9-----------9---------9----------9------|
|--7-----------7---------7----------7--------|
|--------------------------------------------|
|--------------------------------------------|

|------------------------------------------|
|------------------------------------------|
|------------------------------------------|
|-4-4-4-4-4-4--4-4--4-4--4-4-4-4-4-4--4-4--|
|-4-4-4-4-4-4--4-4--4-4--4-4-4-4-4-4--4-4--|
|-4-4-4-4-4-4--4-4--4-4--4-4-4-4-4-4--4-4--|



            
            
Suggest correction
Creating personal tab
Creating personal tab
You can edit any tab online and save it as your Personal.

You can edit, replace or remove any tab part or add personal notes – all changes will be seen only by you.

Personal tabs can be accessed anytime from any device, even offline.
Learn more »
Give kudos to tab author, rate the tab!
1 2 3 4 5
comments
print report bad tab
9 comments total. Showing first comments.
0 reply
Jo shtehpho 167 May 06, 2007 09:53 PM

It's a good tab

0 reply
Jo shtehpho 167 May 07, 2007 10:53 AM

So not it's a fake

0 reply
schecter006 1,198 May 09, 2007 12:49 AM

it's a fake? :S

guest
You may want to rate the tab now too:
select rating
Wanna post a correction for this tab? Suggest correction