Oops, an error
Loading. Please wait.

Take You Home Tab

version 1
version 1

Intro

Whole song

455 views 1 this week
2 commentsread comments
1 2 3 4 5
please rate
add to favorites
launch autoscroll
font size
0
reset
how to read this tab
guitar tuner
Autoscroll
slow
fast
+/-
esc
set tempo
stop
Help us to improve Ultimate-Guitar.com Take our survey!
×
Author
Difficulty
novice
I know Fightstar don't use Standard tuning but i sat down and played this intro along 
the song and it sounds right. Also I have put this as an intro tab because it's not 
Until i work this out maybe this will help someone else?

Verse/Intro
(x4)                  (x2)           (x2)
e|-----------------|-----------------|-----------------|
B|---------2-------|---------2-------|---------2-------|
G|-----4-----4---4-|-----4-----4---4-|-----4-----4---4-|
D|---4---4-----4---|---4---4-----4---|---4---4-----4---|
A|-2---------------|-----------------|-----------------|
E|-----------------|-4---------------|-2---------------|

Chorus (Piano)
e|---------------------|
B|---------------------|
G|--------11-----------|
D|-9-11-9----(9)-11-9--|
A|---------------------|
E|---------------------|
Suggest correction
Give kudos to tab author, rate the tab!
1 2 3 4 5
comments
print report bad tab
2 comments total.
0 reply
Jo shtehpho 167 wrote on July 28 2007, 04:35 pm

better than my version of take you home but you can do this not so small as now but it's good ***** reward

0 reply
rko 2,049 wrote on August 10 2007, 03:24 pm

Hey thanks! Yeah i'm working on the rest of the song

guest
You may want to rate the tab now too:
select rating
Please do not post tabs as comments. Select "correction" instead!