Oops, an error
Loading. Please wait.

Tannhauser Gate bass

version 1
version 1

Whole song

Interactive

735 views 1 this week
7 commentsread comments
1 2 3 4 5
1 last vote to show rating
add to favorites
×
Save as Personal and add changes to this tab that will be seen only by you. Learn more ›
×
You can save this tab as Personal to edit and correct it or add notes. All changes will be seen only by you. Learn more »
launch autoscroll
font size
0
reset
guitar tuner
edit
Autoscroll
slow
fast
+/-
esc
set tempo
stop
----------------------------------------------------------------------------
                           TANNHAUSER GATE - Fightstar
----------------------------------------------------------------------------

Tabbed By : -Mono-- (Benji) 

Tuning: Drop D

Intro (just bass and drums)
G|-------------------------------------|
D|-------------------------------------|
A|-------------------------------------|
D|0-0-0000-0000-0001-0-0-0000-0000-0001|

G|-------------------------------------------|
D|-------------------------------------------|
A|-------------------------------------------|
D|0-0-0000h1110000h1110001-0-0-0000-0000-0001| 

play again when guitar joins in
G|-------------------------------------|
D|-------------------------------------|
A|-------------------------------------|
D|0-0-0000-0000-0001-0-0-0000-0000-0001|

G|-------------------------------------------|
D|-------------------------------------------|
A|-------------------------------------------|
D|0-0-0000h1110000h1110001-0-0-0000-0000-0001| 

then after second time
G|----------------------------------------------------------------|
D|----------------------------------------------------------------|
A|---4^---2^----------------------------------------444--444--444-|
D|000--000--0000-55-500-055-500-055-500-055-500-055----00---00---0|

Verse 1 (you, are the mold...)
G|----------------(tens)--------------------|
D|999-99-99-99-99-101010-1010-1010-1010-1010|
A|777-77-77-77-77-9-9-9--9-9--9-9--9-9--9-9-|
D|------------------------------------------|

G|---------------------------------------|
D|---------------------------------------|
A|---------------------------------------|
D|777-77*-77*-77*-77*-333-33*-33*-33*-33*|

(we, are the ghosts...)
G|----------------(tens)--------------------|
D|999-99-99-99-99-101010-1010-1010-1010-1010|
A|777-77-77-77-77-9-9-9--9-9--9-9--9-9--9-9-|
D|------------------------------------------|

G|---------------------------------------|
D|---------------------------------------|
A|---------------------------------------|
D|777-77*-77*-77*-77*-333-33*-33*-33*-33*|

Chorus (amazing grace!!!)
G|-----------------------------------------------------------|
D|-----------------------------------------------------------|
A|---------------------------------------------------4^----2^|
D|55-500-055-500-055-500-055-500-055-500-055-500-0000--0000--|

(my saviour...)
G|-------------------------------------------------------------|
D|-------------------------------------------------------------|
A|-----------------------------------------------444--444--444^|
D|55-500-055-500-055-500-055-500-055-500-055-500----00---00----|


Verse 2 (would, you believe...)
G|----------------(tens)--------------------|
D|999-99-99-99-99-101010-1010-1010-1010-1010|
A|777-77-77-77-77-9-9-9--9-9--9-9--9-9--9-9-|
D|------------------------------------------|

G|---------------------------------------|
D|---------------------------------------|
A|---------------------------------------|
D|777-77*-77*-77*-77*-333-33*-33*-33*-33*|

(your, universe...)
G|----------------(tens)--------------------|
D|999-99-99-99-99-101010-1010-1010-1010-1010|
A|777-77-77-77-77-9-9-9--9-9--9-9--9-9--9-9-|
D|------------------------------------------|

G|---------------------------------------|
D|---------------------------------------|
A|---------------------------------------|
D|777-77*-77*-77*-77*-333-33*-33*-33*-33*|


Chorus (amazing grace!!!)
G|-----------------------------------------------------------|
D|-----------------------------------------------------------|
A|---------------------------------------------------4^----2^|
D|55-500-055-500-055-500-055-500-055-500-055-500-0000--0000--|

(my saviour...)
G|-------------------------------------------------------------|
D|-------------------------------------------------------------|
A|-----------------------------------------------444--444--444-|
D|55-500-055-500-055-500-055-500-055-500-055-500----00---00---0|

Pre-outro (same as intro)
G|-------------------------------------|
D|-------------------------------------|
A|-------------------------------------|
D|0-0-0000-0000-0001-0-0-0000-0000-0001|

G|-------------------------------------------|
D|-------------------------------------------|
A|---------(ones)----------------------------|
D|0-0-0000h1110000h1110001-0-0-0000-0000-0001| 

(burn!!!!!)
G|-------------------------------------|
D|-------------------------------------|
A|-------------------------------------|
D|0-0-0000-0000-0001-0-0-0000-0000-0001|

G|-------------------------------------------|
D|-------------------------------------------|
A|---------(ones)----------------------------|
D|0-0-0000h1110000h1110001-0-0-0000-0000-0001|

G|----------------------|
D|----------------------|
A|----------------------|
D|000------000------000*| <-- guitar plays most of this short bit

then join when singing starts
(turn it all around and come back to back with me...)
G|-----------------------|
D|-----------------------|
A|3-2-0-3-2-0------------|
D|------------2-3333/7777| play 4 times

then 
(my saviour... arrrrggg go!)
G|-------------------------------|
D|-------------------------------|
A|-------------------------------|
D|55-500-005-550-005-550-00000000|

Outro
G|------------------------------------------------------------|
D|------------------------------------------------------------|
A|------------------------------------------------------------|
D|2-1-0-4-3-0-2-1-0-4-3-0-2-1-0--2-1-0-4-3-0-2-1-0-4-3-0-2-1-0|

then same thing while guitars palm mute
(saviour!!!!!)
G|------------------------------------------------------------|
D|------------------------------------------------------------|
A|------------------------------------------------------------|
D|2-1-0-4-3-0-2-1-0-4-3-0-2-1-0--2-1-0-4-3-0-2-1-0-4-3-0-2-1-0|

then more slower, more draw out notes
(save yourself, save yourself, save yourself!!!!)
G|-------------------------|
D|-------------------------|
A|-------------------------|
D|2--1--0--4--3--0--2--1--0|

end! great song, have fun!

-Benji


| /  slide up
| \  slide down
| h  hammer-on
| p  pull-off
| ^  bend
| +  harmonic
| x  mute note
| *  let ring
============================================================================

            
            
Suggest correction
Creating personal tab
Creating personal tab
You can edit any tab online and save it as your Personal.

You can edit, replace or remove any tab part or add personal notes – all changes will be seen only by you.

Personal tabs can be accessed anytime from any device, even offline.
Learn more »
Give kudos to tab author, rate the tab!
1 2 3 4 5
comments
print report bad tab
7 comments total. Showing first comments.
0 reply
frankibo 1,416 Jan 09, 2008 08:52 AM

tuning is just a little of...
its meant to be in drop A

0 reply
schecter006 1,198 Jan 10, 2008 06:20 AM

drop A# tp be precise

0 reply
frankibo 1,416 Jan 13, 2008 02:59 AM

i heard drop A# and then some said noo its drop A

guest
You may want to rate the tab now too:
select rating
Wanna post a correction for this tab? Suggest correction