Oops, an error
Loading. Please wait.

Tannhauser Gate tab

version 1
version 1

Whole song

Interactive

1,443 views 3 this week
5 commentsread comments
1 2 3 4 5
x 4
add to favorites
×
Save as Personal and add changes to this tab that will be seen only by you. Learn more ›
×
You can save this tab as Personal to edit and correct it or add notes. All changes will be seen only by you. Learn more »
launch autoscroll
font size
0
reset
how to read this tab
guitar tuner
edit
Autoscroll
slow
fast
+/-
esc
set tempo
stop
Author
Difficulty
-------------------------------------------------------------------------------
                             Tannhauser Gate - Fightstar
-------------------------------------------------------------------------------

comments please
not about the verse cause i know that's wrong but it sounds ok
cheers

Tabbed by:Thom Greenwood
Email:thomgreenwood@hotmail.co.uk

Tuning:Drop Bb
Intro

c |------------------------------------------------------------------------|
G |------------------------------------------------------------------------|
Eb|------------------------------------------------------------------------|
Bb|0-0-0000-0000-000-1-----------------------------------------------------|
F |0-0-0000-0000-000-1-----------------------------------------------------|
Bb|0-0-0000-0000-000-1--x4-------------------------------------------------|

c |--------------------------------------------------------------------------|
G |--------------------------------------------------------------------------|
Eb|--------------------------------------------------------------------------|
Bb|0-1-0-3--0-1-0-1----------------------------------------------------------|
F |0-1-0-3--0-1-0-1----------------------------------------------------------|
Bb|0-1-0-3--0-1-0-1----------------------------------------------------------|


c |------------------------------------------------------------------------|
G |------------------------------------------------------------------------|
Eb|------------------------------------------------------------------------|
Bb|4-4--4-00--0-4-4--4-00--0-4-4--4-00--0-4-4--4-00---0-8-0-8--0-8-0-------|
F |4-4--4-00--0-4-4--4-00--0-4-4--4-00--0-4-4--4-00---0-8-0-8--0-8-0-------|
Bb|4-4--4-00--0-4-4--4-00--0-4-4--4-00--0-4-4--4-00---0-8-0-8--0-8-0-------|


Verse

c |5--5--5-5--5-5--5-5--5-5------------------------------------------------|
G |------------------------------------------------------------------------|
Eb|2--2--2-2--2-2--2-2--2-2------------------------------------------------|
Bb|---------------------------x as many as you need------------------------|
F |------------------------------------------------------------------------|
Bb|------------------------------------------------------------------------|

Chorus
c |-------------------------------------------------------------------------------------|
G |-------------------------------------------------------------------------------------|
Eb|-------------------------------------------------------------------------------------|
Bb|4-4--4-00--0-4-4--4-00--0-4-4--4-00--0-4-4--4-00---0-4-4--4-00-0-4-4--4-00-----------|
F |4-4--4-00--0-4-4--4-00--0-4-4--4-00--0-4-4--4-00---0-4-4--4-00-0-4-4--4-00-----------|
Bb|4-4--4-00--0-4-4--4-00--0-4-4--4-00--0-4-4--4-00---0-4-4--4-00-0-4-4--4-00-----------|

c |--------------------------------------------------------------------------|
G |--------------------------------------------------------------------------|
Eb|--------------------------------------------------------------------------|
Bb|0-1-0-3--0-1-0-1----------------------------------------------------------|
F |0-1-0-3--0-1-0-1----------------------------------------------------------|
Bb|0-1-0-3--0-1-0-1----------------------------------------------------------|


c |-------------------------------------------------------------------------------------|
G |-------------------------------------------------------------------------------------|
Eb|-------------------------------------------------------------------------------------|
Bb|4-4--4-00--0-4-4--4-00--0-4-4--4-00--0-4-4--4-00---0-4-4--4-00-0-4-4--4-00-----------|
F |4-4--4-00--0-4-4--4-00--0-4-4--4-00--0-4-4--4-00---0-4-4--4-00-0-4-4--4-00-----------|
Bb|4-4--4-00--0-4-4--4-00--0-4-4--4-00--0-4-4--4-00---0-4-4--4-00-0-4-4--4-00-----------|

c |------------------------------------------------------------------------|
G |------------------------------------------------------------------------|
Eb|------------------------------------------------------------------------|
Bb|0-8-0-8~----------------------------------------------------------------|
F |0-8-0-8~----------------------------------------------------------------|
Bb|0-8-0-8~----------------------------------------------------------------|

Verse

c |5--5--5-5--5-5--5-5--5-5------------------------------------------------|
G |------------------------------------------------------------------------|
Eb|2--2--2-2--2-2--2-2--2-2------------------------------------------------|
Bb|---------------------------x as many as you need------------------------|
F |------------------------------------------------------------------------|
Bb|------------------------------------------------------------------------|

Chorus
c |-------------------------------------------------------------------------------------|
G |-------------------------------------------------------------------------------------|
Eb|-------------------------------------------------------------------------------------|
Bb|4-4--4-00--0-4-4--4-00--0-4-4--4-00--0-4-4--4-00---0-4-4--4-00-0-4-4--4-00-----------|
F |4-4--4-00--0-4-4--4-00--0-4-4--4-00--0-4-4--4-00---0-4-4--4-00-0-4-4--4-00-----------|
Bb|4-4--4-00--0-4-4--4-00--0-4-4--4-00--0-4-4--4-00---0-4-4--4-00-0-4-4--4-00-----------|

c |--------------------------------------------------------------------------|
G |--------------------------------------------------------------------------|
Eb|--------------------------------------------------------------------------|
Bb|0-1-0-3--0-1-0-1----------------------------------------------------------|
F |0-1-0-3--0-1-0-1----------------------------------------------------------|
Bb|0-1-0-3--0-1-0-1----------------------------------------------------------|


c |-------------------------------------------------------------------------------------|
G |-------------------------------------------------------------------------------------|
Eb|-------------------------------------------------------------------------------------|
Bb|4-4--4-00--0-4-4--4-00--0-4-4--4-00--0-4-4--4-00---0-4-4--4-00-0-4-4--4-00-----------|
F |4-4--4-00--0-4-4--4-00--0-4-4--4-00--0-4-4--4-00---0-4-4--4-00-0-4-4--4-00-----------|
Bb|4-4--4-00--0-4-4--4-00--0-4-4--4-00--0-4-4--4-00---0-4-4--4-00-0-4-4--4-00-----------|


c |------------------------------------------------------------------------|
G |------------------------------------------------------------------------|
Eb|------------------------------------------------------------------------|
Bb|0-8-0-8~----------------------------------------------------------------|
F |0-8-0-8~----------------------------------------------------------------|
Bb|0-8-0-8~----------------------------------------------------------------|

Breakdown

c |------------------------------------------------------------------------|
G |------------------------------------------------------------------------|
Eb|------------------------------------------------------------------------|
Bb|0-0-0000-0000-000-1-----------------------------------------------------|
F |0-0-0000-0000-000-1-----------------------------------------------------|
Bb|0-0-0000-0000-000-1--x8-------------------------------------------------|


Cool Kick ass Riff
c |------------------------------------------------------------------------|
G |------------------------------------------------------------------------|
Eb|------------------------------------------------------------------------|
Bb|-------3-2---0-3-0------------------------------------------------------|
F |-----------4------------------------------------------------------------|
Bb|0-1-0--------------3-3/5--5/8-8-8-8-x4----------------------------------|

c |------------------------------------------------------------------------|
G |------------------------------------------------------------------------|
Eb|------------------------------------------------------------------------|
Bb|4-4--4-00--0-4-4--4-00--0-4-4--4-00--0-4-4--4-00------------------------|
F |4-4--4-00--0-4-4--4-00--0-4-4--4-00--0-4-4--4-00------------------------|
Bb|4-4--4-00--0-4-4--4-00--0-4-4--4-00--0-4-4--4-00------------------------|

Ending

c |------------------------------------------------------------------------|
G |------------------------------------------------------------------------|
Eb|------------------------------------------------------------------------|
Bb|3-2-0-3-2-0-3-2-0-3-2-0-3-2-0~------------------------------------------|
F |3-2-0-3-2-0-3-2-0-3-2-0-3-2-0~------------------------------------------|
Bb|3-2-0-3-2-0-3-2-0-3-2-0-3-2-0~--x2---Then double speed------------------|

c |------------------------------------------------------------------------|
G |------------------------------------------------------------------------|
Eb|------------------------------------------------------------------------|
Bb|3--2--0---3--2--0---3--2--0~--------------------------------------------|
F |3--2--0---3--2--0---3--2--0~--------------------------------------------|
Bb|3--2--0---3--2--0---3--2--0~--------------------------------------------|


JULES VERNE!!!!!!!!!!!!!!!!!!!!!!


| /  slide up
| \  slide down
| h  hammer-on
| p  pull-off
| ~  vibrato
| +  harmonic
| x  Mute note
===============================================================================
Suggest correction
Creating personal tab
Creating personal tab
You can edit any tab online and save it as your Personal.

You can edit, replace or remove any tab part or add personal notes – all changes will be seen only by you.

Personal tabs can be accessed anytime from any device, even offline.
Learn more »
comments
print report bad tab
5 comments total. Showing first comments.
+1 reply
19371 1,056 Oct 15, 2007 10:12 AM

"JULES VERNE!!!!!!!!!!!" AHAHAH! Nice tab man!

+1 reply
ThomGreenwood99 302 Oct 15, 2007 10:42 AM

yea lol

+1 reply
matty182rules 123 Oct 15, 2007 10:50 AM

wow


you are ****ing amazing

i actaully love you more than the sun

and i do love the sun

guest
You may want to rate the tab now too:
select rating
Wanna post a correction for this tab? Suggest correction