Oops, an error
Loading. Please wait.

Until Then bass

version 2
version 2

Whole song

Interactive

171 views 1 this week
no commentswrite comment
1 2 3 4 5
3 more votes to show rating
add to favorites
×
Save as Personal and add changes to this tab that will be seen only by you. Learn more ›
×
You can save this tab as Personal to edit and correct it or add notes. All changes will be seen only by you. Learn more »
launch autoscroll
font size
0
reset
guitar tuner
edit
Autoscroll
slow
fast
+/-
esc
set tempo
stop
Author
Difficulty
----------------------------------------------------------------------------
			    Until Then - Fightstar
----------------------------------------------------------------------------

Band: Fightstar
Song: Until Then
Album: They Liked You Better When You Were Dead (USA) and Paint Your Target B-side
Tabbed By : Benji James
e-mail: Why do you wanna know?

Ok. I did a Guitar Pro version of this and I wanted you guys who don't have guitar pro, 
have the bass for Until Then...

Enjoy

Tuning: DADG

INTRO:

G|------|------|------|------|--------|
D|------|------|------|------|--------|
A|------|------|------|------|--------|
D-5--1-|-5--1-|-5--1-|-5--1-|-5--1----|

VERSE:
(You people ask, it doesn't make sense...)
G|------|------|------|------|------|------|------|------|
D|------|------|------|------|------|------|------|------|
A|------|------|------|------|------|------|------|------|
D|-5--1-|-5--1-|-5--1-|-5--1-|-5--1-|-5--1-|-5--1-|-5--1-|

HEAVY BIT:
G|------|------|------|------|
D|------|------|------|------|
A|------|------|------|------|
D|-5--1-|-5--1-|-5--1-|-5--1-|

VERSE:
(A kiss, kiss I know it feels right...)
G|------|------|------|------|------|------|------|------|
D|------|------|------|------|------|------|------|------|
A|------|------|------|------|------|------|------|------|
D|-5--1-|-5--1-|-5--1-|-5--1-|-5--1-|-5--1-|-5--1-|-5--1-|

CHORUS:
(And I'm trying hard, to communicate...)
G|-----------------|-----------------|-----------------|-----------------|
D|-----------------|-----------------|-----------------|-----------------|
A|-7-7-7-7-7-7-7-7-|-7-7-7-7-7-7-7-7-|-3-3-3-3-3-3-3-3-|-3-3-3-3-3-3-3-3-|
D|-----------------|-----------------|-----------------|-----------------|

G|-----------------|-----------------|-----------------|-----------------|
D|-----------------|-----------------|-----------------|-----------------|
A|-----------------|-----------------|-----------------|-----------------|
D|-5-5-5-5-5-5-5-5-|-5-5-5-5-5-5-5-5-|-9-9-9-9-9-9-9-9-|-9-9-9-9-9-9-9-9-|

G|-----------------|-----------------|-----------------|-----------------|
D|-----------------|-----------------|-----------------|-----------------|
A|-7-7-7-7-7-7-7-7-|-7-7-7-7-7-7-7-7-|-3-3-3-3-3-3-3-3-|-3-3-3-3-3-3-3-3-|
D|-----------------|-----------------|-----------------|-----------------|

G|-----------------|-----------------|-----------------|-----------------|
D|-----------------|-----------------|-----------------|-----------------|
A|-----------------|-----------------|-----------------|-----------------|
D|-5-5-5-5-5-5-5-5-|-5-5-5-5-5-5-5-5-|-9-9-9-9-9-9-9-9-|-9-9-9-9-9-9-9-9-|

VERSE 2:
(All you do is talk a lot...)
G|------|------|------|------|------|------|------|------|
D|------|------|------|------|------|------|------|------|
A|------|------|------|------|------|------|------|------|
D|-5--1-|-5--1-|-5--1-|-5--1-|-5--1-|-5--1-|-5--1-|-5--1-|

(All you do is talk a lot...)
G|-----------------|-----------------|-----------------|-----------------|
D|-----------------|-----------------|-----------------|-----------------|
A|-5-5-5-5-5-5-5-5-|-5-5-5-5-5-5-5-5-|-6-6-6-6-6-6-6-6-|-6-6-6-6-6-6-6-6-|
D|-----------------|-----------------|-----------------|-----------------|

G|-----------------|-----------------|-----------------|-----------------|
D|-----------------|-----------------|-----------------|-----------------|
A|-7-7-7-7-7-7-7-7-|-7-7-7-7-7-7-7-7-|-8-8-8-8-8-8-8-8-|-10-x8-----------|
D|-----------------|-----------------|-----------------|-----------------|

HEAVY BIT:
G|------|------|------|------|
D|------|------|------|------|
A|------|------|------|------|
D|-5--1-|-5--1-|-5--1-|-5--1-|

CHORUS:
(And I'm trying hard, to communicate...)
G|-----------------|-----------------|-----------------|-----------------|
D|-----------------|-----------------|-----------------|-----------------|
A|-7-7-7-7-7-7-7-7-|-7-7-7-7-7-7-7-7-|-3-3-3-3-3-3-3-3-|-3-3-3-3-3-3-3-3-|
D|-----------------|-----------------|-----------------|-----------------|

G|-----------------|-----------------|-----------------|-----------------|
D|-----------------|-----------------|-----------------|-----------------|
A|-----------------|-----------------|-----------------|-----------------|
D|-5-5-5-5-5-5-5-5-|-5-5-5-5-5-5-5-5-|-9-9-9-9-9-9-9-9-|-9-9-9-9-9-9-9-9-|

G|-----------------|-----------------|-----------------|-----------------|
D|-----------------|-----------------|-----------------|-----------------|
A|-7-7-7-7-7-7-7-7-|-7-7-7-7-7-7-7-7-|-3-3-3-3-3-3-3-3-|-3-3-3-3-3-3-3-3-|
D|-----------------|-----------------|-----------------|-----------------|

G|-----------------|-----------------|-----------------|-----------------|
D|-----------------|-----------------|-----------------|-----------------|
A|-----------------|-----------------|-----------------|-----------------|
D|-5-5-5-5-5-5-5-5-|-5-5-5-5-5-5-5-5-|-9-9-9-9-9-9-9-9-|-9-9-9-9-9-9-9-9-|


G|-R-|-R-|------------------|----------------------|
D|-R-|-R-|------------------|----------------------|
A|-R-|-R-|------------------|----------------------|
D|-R-|-R-|--5-5--10-10--3-3-|-12-12-12-12-12-12-12-|

G|------------------|-----------------------|
D|------------------|-----------------------|
A|------------------|-----------------------|
D|--5-5--10-10--3-3-|-12-12-12-12-12-12-12--|

G|------------------|-----------------------|
D|------------------|-----------------------|
A|------------------|-----------------------|
D|--5-5--10-10--3-3-|-12-12-12-12-12-12-12--|

G|---|
D|---|
A|---|
D|-0-|

Break
G|-----------------|-----------------|
D|-----------------|-----------------|
A|-----------------|-----------------| (times 10)
D|-9-9-9-9-9-9-9-9-|-5-5-5-5-5-5-5-5-|

Outro
G|-----------------|-----------------|-----------------|-----------------|
D|-----------------|-----------------|-----------------|-----------------|
A|-----------------|-----------------|-----------------|-----------------|
D|-0-0-0-0-0-0-0-0-|-0-0-0-0-0-0-0-0-|-7-7-7-7-7-7-7-7-|-7-7-7-7-7-7-7-7-|

G|-----------------|-----------------|-----------------|-----------------|
D|-----------------|-----------------|-----------------|-----------------|
A|-----------------|-----------------|-----------------|-----------------|
D|-0-0-0-0-0-0-0-0-|-0-0-0-0-0-0-0-0-|-7-7-7-7-7-7-7-7-|-7-7-7-7-7-7-7-7-|

G|-----------------|-----------------|-----------------|-----------------|
D|-----------------|-----------------|-----------------|-----------------|
A|-----------------|-----------------|-----------------|-----------------|
D|-0-0-0-0-0-0-0-0-|-0-0-0-0-0-0-0-0-|-7-7-7-7-7-7-7-7-|-7-7-7-7-7-7-7-7-|

G|-----------------|-----------------|-----------------|-----------------|
D|-----------------|-----------------|-----------------|-----------------|
A|-----------------|-----------------|-----------------|-----------------|
D|-0-0-0-0-0-0-0-0-|-0-0-0-0-0-0-0-0-|-7-7-7-7-7-7-7-7-|-7-7-7-7-7-7-7-7-|

G|---|
D|---|
A|---|
D|-0-|

| R  rest
| /  slide up
| \  slide down
| h  hammer-on
| p  pull-off
| ~  vibrato
| +  harmonic
| x  Mute note
=============================================================================
Suggest correction
Creating personal tab
Creating personal tab
You can edit any tab online and save it as your Personal.

You can edit, replace or remove any tab part or add personal notes – all changes will be seen only by you.

Personal tabs can be accessed anytime from any device, even offline.
Learn more »
Give kudos to tab author, rate the tab!
1 2 3 4 5
comments
print report bad tab
guest
You may want to rate the tab now too:
select rating
Wanna post a correction for this tab? Suggest correction