Oops, an error
Loading. Please wait.

Waste A Moment bass

version 1
version 1

Whole song

Interactive

882 views 1 this week
1 commentread comment
1 2 3 4 5
2 more votes to show rating
add to favorites
×
Save as Personal and add changes to this tab that will be seen only by you. Learn more ›
×
You can save this tab as Personal to edit and correct it or add notes. All changes will be seen only by you. Learn more »
launch autoscroll
font size
0
reset
guitar tuner
edit
Autoscroll
slow
fast
+/-
esc
set tempo
stop
Waste a moment
---------------
Drop D
-------

Intro - Just guitar
--------------------

Chorus
-------

g-----------------------------------|
d-----------------------------------|
a-----------------------------------|  X2
d--1x12-----5x12--------------------|
"I-i-i, i wont waste a moment"

Fill before verse
---------------------------------|
g--------------------------------|
d-------5p3----------------------|
a-----------5p3--5/6/5-----------|
d--------------------------------|

(listen out for that fill i'm sure you'll hear it its just after the chorus and just before the verse)


Verse
-----
g---------------------------------------------------|---------|
d-----------5---------5---------3----------1--------|1---1----|
a---5-5-5-5---5-5-5-5---1-1-1-1----1-1-1-1---1-1-1--|---1---1-|  X2
d---------------------------------------------------|---------|
   "I'm alone and self anemic,                      |short bit
    but sometimes we wake up"


Chorus
------
Fill before verse
------------------
Verse (played 3 times instead of 2)
------------------------------------
Chorus (played 5 times instead of 2)
------------------------------------

Lead up to bridge
---------------------------------------|
g--------------------------------------|
d---3h5-5-5-5-5-5-5-5-5----------------|
a--------------------------------------|  x4
d--------------------------------------|


Bridge
-------------------------------------------|
g------------------------------------------|
d------------------------------------------|
a--2-2-2-2-2-2---4-4-4-4-4-4------4-4-4-4--|
d-----------------------------2-2----------|

"Just cover up your eyes so i can make sense of it all you're waking me up"

g---------------------------------------------------------------------------|
a---------------------------------------------------------------------------|
d--6-6-6-6-6-6---9-9-9-9-9-9--2-2-2-2-2-2/11-11-11-11-11-11-11-11-----------|
   2-2-2-2-2-2/11-11-11-11-11-11-11-11--2-2/11------------------------------|

"Shut your eyes so i can make sense of it all, i can make sense of it all, so i can make 
of it all"

            
            
Suggest correction
Creating personal tab
Creating personal tab
You can edit any tab online and save it as your Personal.

You can edit, replace or remove any tab part or add personal notes – all changes will be seen only by you.

Personal tabs can be accessed anytime from any device, even offline.
Learn more »
Give kudos to tab author, rate the tab!
1 2 3 4 5
comments
print report bad tab
1 comment total.
0 reply
marneus1 20 May 23, 2006 12:10 PM

dude that tab is so bad you seriously need to rethink it. i actually managed to figure it out myself, just listen carefully and try and get the right notes.

guest
Wanna post a correction for this tab? Suggest correction