Oops, an error
Loading. Please wait.

We Apologise For Nothing bass

version 1
version 1

Whole song

Interactive

1,926 views 1 this week
no commentswrite comment
1 2 3 4 5
x 4
add to favorites
×
Save as Personal and add changes to this tab that will be seen only by you. Learn more ›
×
You can save this tab as Personal to edit and correct it or add notes. All changes will be seen only by you. Learn more »
launch autoscroll
font size
0
reset
guitar tuner
edit
Autoscroll
slow
fast
+/-
esc
set tempo
stop
Author
Difficulty
----------------------------------------------------------------------------
                   We Apologise For Nothing - Fightstar
----------------------------------------------------------------------------

Tabbed By : -Mono-- (Benji)

Tuning: Standard

Intro (listen very carefully for the notes on the G string)
G|--------9--8--6--------9--8--6----------------------------------|
D|----------------------------------------------------------------|
A|00000000-00-00---000000-00-00-00000000000000005555555555555555/0|
E|----------------------------------------------------------------|

short rest, then play (fairly quick, listen for slides)
G|-------------------------------------------------|
D|-------------------------------------------------|
A|-------------------------------------------------|
E|0-7-0-9/3-0-7-0-9/3-3333-0-7-0-9/3-0-7-0-9/3-3333|

G|--------------------------------|
D|--------------------------------|
A|--------------------------------|
E|77777777777777775555555555555555|

Verse (similar as intro)
G|--------9--8--6--------9--8--6--------------------------------|
D|--------------------------------------------------------------|
A|00000000-00-00---000000-00-00-0020-020-020-0200020-020-020-020|
E|--------------------------------------------------------------|
                                 ^this part here is "open, two, open

G|--------9--8--6--------9--8--6--------------------------------|
D|--------------------------------------------------------------|
A|00000000-00-00---000000-00-00-0020-020-020-0200020-020-020-020|
E|--------------------------------------------------------------|

Pre-chorus
G|----------------------------------------------------------------|
D|----------------------------------------------------------------|
A|00-0000000-0000022-2222222-2222255-5555555-5555500-0000000-00000|
E|----------------------------------------------------------------|

short break for guitar scale

Chorus
G|----------------------------------------------------------------|
D|----------------------------------------------------------------|
A|----------------------------------------------------------------|
E|3333333355555555777777779999999933333333555555557777777799999999|

G|--------------------------------------------------------------------|
D|--------------------------------------------------------------------|
A|--------------------------------------------------------------------|
E|00-03333-00-05555-00-07777-00-09999-3333333355555555777777779*|

short break then 2nd verse

Verse 
G|--------9--8--6--------9--8--6--------------------------------|
D|--------------------------------------------------------------|
A|00000000-00-00---000000-00-00-0020-020-020-0200020-020-020-020|
E|--------------------------------------------------------------|
                                 ^this part here is "open, two, open

G|--------9--8--6--------9--8--6--------------------------------|
D|--------------------------------------------------------------|
A|00000000-00-00---000000-00-00-0020-020-020-0200020-020-020-020|
E|--------------------------------------------------------------|

Pre-chorus
G|----------------------------------------------------------------|
D|----------------------------------------------------------------|
A|00-0000000-0000022-2222222-2222255-5555555-5555500-0000000-00000|
E|----------------------------------------------------------------|

short break for guitar scale again

Chorus
G|----------------------------------------------------------------|
D|----------------------------------------------------------------|
A|----------------------------------------------------------------|
E|3333333355555555777777779999999933333333555555557777777799999999|

G|--------------------------------------------------------------------|
D|--------------------------------------------------------------------|
A|--------------------------------------------------------------------|
E|00-03333-00-05555-00-07777-00-09999-33333333555555557777777799999999|

short break while just guitars and drums play
bass joins when singing starts

Bridge
G|--------------------------------------------------------------|
D|----------------------------------33---------33--------33-----|
A|00000000000000005555555555555555----33-00------33-00-----33-00|
E|--------------------------------00--------00---------00-------|

G|--------------------------------------------------------------|
D|----------------------------------33---------33--------33-----|
A|00000000000000005555555555555555----33-00------33-00-----33-00|
E|--------------------------------00--------00---------00-------|

then play pre-chorus and chorus again

Pre-chorus
G|----------------------------------------------------------------|
D|----------------------------------------------------------------|
A|00-0000000-0000022-2222222-2222255-5555555-5555500-0000000-00000|
E|----------------------------------------------------------------|

short break for guitar scale again

Chorus
G|----------------------------------------------------------------|
D|----------------------------------------------------------------|
A|----------------------------------------------------------------|
E|3333333355555555777777779999999933333333555555557777777799999999|

G|--------------------------------------------------------------------|
D|--------------------------------------------------------------------|
A|--------------------------------------------------------------------|
E|00-03333-00-05555-00-07777-00-09999-33333333555555557777777799999999|

Outro
G|---------------------------------|
D|---------------------------------|
A|---------------------------------|
E|3*-----5*------7*------9*------3*|

End!

Thanks for reading, -Benji


| /  slide up
| \  slide down
| h  hammer-on
| p  pull-off
| ^  bend
| +  harmonic
| x  mute note
| *  let ring
===========================================================================

            
            
Suggest correction
Creating personal tab
Creating personal tab
You can edit any tab online and save it as your Personal.

You can edit, replace or remove any tab part or add personal notes – all changes will be seen only by you.

Personal tabs can be accessed anytime from any device, even offline.
Learn more »
comments
print report bad tab
guest
You may want to rate the tab now too:
select rating
Wanna post a correction for this tab? Suggest correction