Oops, an error
Loading. Please wait.

We Apologise For Nothing bass

version 2
version 2

Whole song

Interactive

1,249 views 1 this week
no commentswrite comment
1 2 3 4 5
2 more votes to show rating
add to favorites
×
Save as Personal and add changes to this tab that will be seen only by you. Learn more ›
×
You can save this tab as Personal to edit and correct it or add notes. All changes will be seen only by you. Learn more »
launch autoscroll
font size
0
reset
guitar tuner
edit
Autoscroll
slow
fast
+/-
esc
set tempo
stop
We Apologise For Nothing           
Fightstar
Drop D

Intro

G||-------------------|--9------7------6----|
D||-------------------|---------------------|  x 2
A||--0----------------|---------------------|
D||-------------------|---------------------| 
                                 
-------------------|
-------------------|
--0----------------|
-------------------|
  ^let this ring until the main riff starts

Riff 

|-------------------------|-------------------------|
|-------------------------|-------------------------|
|--0--4--0--4\------0--4--|--0--4\------2--0--0--0--| x2
|-------------------------|-------------------------|

--------------------------|--------------------------|
--------------------------|--------------------------|
--------------------------|--------------------------|
--7--7--7--7--7--7--7--7--|--7--7--7--7--7--7--7--7--|


--------------------------|--------------------------|
--------------------------|--------------------------|
--------------------------|--------------------------|
--4--4--4--4--4--4--4--4--|--4--4--4--4--4--4--4--4--|

Verse

--------------------------|--9------7------6----|
--------------------------|---------------------|
--0--0--0--0--0--0--0--0--|---------------------| x2
--------------------------|---------------------|

----------------------------|
----------------------------|
----------------------------| x 4
-----0--12--0-----0--12--0--|

and do all of that twice

Prechorus

--------------------------|--------------------------|
--------------------------|--------------------------|
--------------------------|--------------------------|
--2--2-----2--2--2--2--2--|--2--2-----2--2--2--2--2--|


--------------------------|--------------------------|
--------------------------|--------------------------|
--------------------------|--------------------------|
--4--4-----4--4--4--4--4--|--4--4-----4--4--4--4--4--|

--------------------------|--------------------------|
--------------------------|--------------------------|
--------------------------|--------------------------|
--7--7-----7--7--7--7--7--|--7--7-----7--7--7--7--7--|

--------------------------|--------------------------|
--------------------------|--------------------------|
--------------------------|--------------------------|
--0--0-----0--0--0--0--0--|--0--0-----0--0--0--0--0--|

2 Bar rest and then
Chorus

--------------------------|--------------------------|
--------------------------|--------------2-----------|
--------------5-----------|--------------------------|
--0--0--0--0-----0--0--0--|--2--2--2--2-----2--2--2--|

--------------------------|--------------------------|
--------------4-----------|--------------7-----------|   
--------------------------|--0--0--0--0-----0--0--0--|  those 4 bars x2
--4--4--4--4-----4--4--4--|--------------------------|

-------------------------|-------------------------|
-------------------------|----------2--2--2--2--2--|
----------5--5--5--5--5--|-------------------------|
--0--0-------------------|--2--2-------------------|

-------------------------|-------------------------|
----------4--4--4--4--4--|----------7--7--7--7--7--|
-------------------------|--0--0-------------------|
--4--4-------------------|-------------------------|

--------------------------|--------------------------|
--------------------------|--------------2-----------|
--------------5-----------|--------------------------|
--0--0--0--0-----0--0--0--|--2--2--2--2-----2--2--2--|

--------------------------|--------------------------|
--------------4-----------|--------------------------|  
--------------------------|--------------------------|
--4--4--4--4-----4--4--4--|--0-----------------------|

Let the open on the D string ring for 4 bars and then

Verse

Prechorus

Chorus

play this for the last 4 bars of the second chorus
instead of what was played the first time

--------------------------|--------------------------|
--------------------------|--------------------------|
--------------------------|--------------------------|
--0--0--0--0--0--0--0--0--|--2--2--2--2--2--2--2--2--|

--------------------------|--------------------------|
--------------------------|--------------------------|
--------------------------|--0--0--0--0--0--0--0--0--|
--4--4--4--4--4--4--4--4--|--------------------------|

Bridge

---------------------|------------------------|
---------------------|------------------------|
--4------7------4----|--L--2----4--7--4--0----|
---------------------|------------------------|
                ^ hold this note into the next bar

(i'm not sure about this bit, i saw dan playing it live and
he was playing some sort of schord and this seems to fit)
--------------------------|----------------------------------|
--9--9--9--9--9--9--9--9--|--11--11--11--11--11--11--11--11--|
--7--7--7--7--7--7--7--7--|---9---9---9---9---9---9---9---9--|
--------------------------|----------------------------------|

--------9--9--------------|
--------------9--9--7--7--|
--------------------------| x 4
--0--0--------------------|

all of that x2

and then

Prechorus

Chorus
the same as the second time except
instead of the octave bit (that starts 8 bars in) play this:

--------------------------|--------------------------|
--------------------------|--------------------------|
--------------------------|--------------------------|
--0--0--0--0--0--0--0--0--|--2--2--2--2--2--2--2--2--|

--------------------------|--------------------------|
--------------------------|--------------------------|
--------------------------|--0--0--0--0--0--0--0--0--|
--4--4--4--4--4--4--4--4--|--------------------------|

Outro

-------------------|-------------------|
-------------------|-------------------|
-------------------|-------------------|
--0----------------|--2----------------|

           
-------------------|-------------------|
-------------------|-------------------|
-------------------|-------------------|
--4----------------|--7----------------|

            
-------------------|
-------------------|
-------------------|
--0----------------|
 ^ let this ring until you get bored or the song ends :)

            
            
Suggest correction
Creating personal tab
Creating personal tab
You can edit any tab online and save it as your Personal.

You can edit, replace or remove any tab part or add personal notes – all changes will be seen only by you.

Personal tabs can be accessed anytime from any device, even offline.
Learn more »
Give kudos to tab author, rate the tab!
1 2 3 4 5
comments
print report bad tab
guest
You may want to rate the tab now too:
select rating
Wanna post a correction for this tab? Suggest correction