Oops, an error
Loading. Please wait.

Hey Man Nice Shot Tab

version 1
version 1

Whole song

Interactive

by Filter
36,373 views 108 this week
4 commentsread comments
1 2 3 4 5
x 10
add to favorites
launch autoscroll
font size
0
reset
how to read this tab
guitar tuner
backing track
0:00
0:00
×
Best way to learn
"Hey Man Nice Shot"
Autoscroll
slow
fast
+/-
esc
set tempo
stop
Tuning
D A D G B E
Filter -  Hey Man Nice Shot
Album: 'Short Bus'
Tuning: dropped D (tune your low E string down to D)

[Verse riff] (could be a keyboard but you can simulate with palm muting and tinny distortion)
[Note] i haven't included the exact amount of notes picked; listen to song for that..
e|--------------------------------------------------------------------|
B|--------------------------------------------------------------------|
G|--------------------------------------------------------------------|
D|--------------------------------------------------------------------|
A|------------------8--8--8--8--8--8--8--8--8--8--8--8--3--3--3--3--3-|
E|---0--0--0--0--0----------------------------------------------------|

[Chorus chords] (lots of distortion here)
e|------------------------------------------------------------|
B|------------------------------------------------------------|
G|------------------------------------------------------------|
D|------------------------------------------------------------|
A|--0--10--12--0--10--12--0--10--12--0--10--12--0--10--12--0--|
E|--0--10--12--0--10--12--0--10--12--0--10--12--0--10--12--0--|

e|-------------------------------------------------------|
B|-------------------------------------------------------|
G|-------------------------------------------------------|
D|-------------------------------------------------------|
A|--0--10--9--0--10--9--0--10--9--0--10--9--0--10--9--0--|
E|--0--10--9--0--10--9--0--10--9--0--10--9--0--10--9--0--|

e|--------------------------------------------------|
B|--------------------------------------------------|
G|--------------------------------------------------|
D|--------------------------------------------------|
A|--0--5--7--0--5--7--0--5--7--0--5--7--0--5--7--0--|
E|--0--5--7--0--5--7--0--5--7--0--5--7--0--5--7--0--|

e|------------------------------------------------------|
B|------------------------------------------------------|
G|------------------------------------------------------|
D|------------------------------------------------------|
A|--0--5--3--0--5--3--0--5--3--0--5--3--0--5--3--0---0--|
E|--0--5--3--0--5--3--0--5--3--0--5--3--0--5--3--0---0--|

[Ending riff] (played over chorus chords)
e|--------------------------------------|
B|--------------------------------------|
G|--------------------------------------|
D|--------------------------------------|
A|---3--(5)-----5-----------3-----------|
E|-----------------------------------3--|

[Lyrics]
[Verse 1] (no major guitar parts, just some background feedback...)
i wish i would have met you
now its a little late
what you could have taught me
i could have saved some face
they think that your (?) was all wrong
for the most part they're right
but look how they all got strong

thats why i say hey man nice shot
(start playing [Verse riff] here...)

[Pre-Chorus]
good shot man
thats why i say hey man nice shot
good shot man

[Chorus] (Play [Chorus chords] over these lyrics...)
hey man    has gone
hey man    have fun
nice shot man

[Verse 2] (no major guitar parts, just some background feedback...)
now that the smokes gone
and the air is all clear
those who were right here
had a new kind of fear
you'd fight and you were right
but they were just too strong
they stick it in your face
and let you smell what they consider wrong

thats why i say hey man nice shot
(start playing [Verse riff] again here...)

[Pre-Chorus]
good shot man
thats why i say hey man nice shot
good shot man

[Chorus] Play [Chorus chords] over these lyrics - play twice this time...)
hey man    has gone
hey man    have fun
nice shot man

(one guitar plays [Chorus chords] while 2nd one plays theending riff over the following  repeated lyrics...)
I wish i would have met you
Suggest correction
comments
print report bad tab
4 comments total. Showing first comments.
-1 reply
Avengedx7xFold 41 Nov 02, 2005 10:48 AM

There are four guys in the band, not two, and the bass riff's last two notes arent right

0 reply
MJoel 10 Dec 29, 2005 03:39 PM

Um... to the last comment.... you really are an idiot. The first album was made by just rwo guys with drum machines and instrument samples. It wasn't until the second album that the band was ever four men. Besides, Filter is only one man. He's the only consistent member who stays in the lineup throughout the band's career.

0 reply
selftaught85 10 Dec 18, 2006 11:09 AM

in the (?) part he says in your holy ending

guest
You may want to rate the tab now too:
select rating
Wanna post a correction for this tab? Suggest correction