Oops, an error
Loading. Please wait.

Eyes Of Horror Tab

version 2
version 2

Intro

  • This version wasn't made while high.
7 views 1 this week
no commentswrite comment
1 2 3 4 5
3 more votes to show rating
add to favorites
launch autoscroll
font size
0
reset
how to read this tab
guitar tuner
Autoscroll
slow
fast
+/-
esc
set tempo
stop
Help us to improve Ultimate-Guitar.com Take our survey!
×
Author
Difficulty
Tuning
novice
D G C F A D
About this tab version
This version wasn't made while high. Was this info helpful? Yes No
[Intro]

D|---------------------------------------------------------------------------|
A|---------------------------------------------------------------------------|
F|---------------------------------------------------------------------------|
C|--5-------4----------5-2~---5-------4----------7-2~------------------------|
G|--3-------2------5-4-3-2~---3-------2------5-4-5-2~------------------------|
D|------0-0----0-0-3-2---0~-------0-0----0-0-3-2---0~------------------------|

D|---------------------------------------------------------------------------|
A|---------------------------------------------------------------------------|
F|---------------------------------------------------------------------------|
C|--5-------4----------5-2~---5-------4----------7-2~------------------------|
G|--3-------2------5-4-3-2~---3-------2------5-4-5-2~------------------------|
D|------0-0----0-0-3-2---0~-------0-0----0-0-3-2---0~------------------------|

D|---------------------------------------------------------------------------|
A|---------------------------------------------------------------------------|
F|---------------------------------------------------------------------------|
C|-9~------------------------------------------------------------------------|
G|-7~------------------------------------------------------------------------|
D|---------------------------------------------------------------------------|


                                                               TR
D|---------------------------------------------------------------------------|
A|---------------------------------------------------------------------------|
F|---------------------------------------------------------------------------|
C|------------------------6-7-6----------------------------6-7-6-7-----------|
G|---------8-7---7--8-7-5-------8-----------8-7---7--8-7-5-------------------|
D|-0-0-0-0-----0--------------------0-0-0-0-----0----------------------------|


                                   |PM---------------------|                           
D|---------------------------------------------------------------------------|
A|---------------------------------------------------------------------------|
F|------------------------------------------------4-5-4---------8------------|
C|------------------------6-7-6-----------6-7-6---------7-6-10--6------------|
G|---------8-7---7--8-7-5-------8---5-7-8-------8-----------8----------------|
D|-0-0-0-0-----0-------------------------------------------------------------|

                                                               TR
D|---------------------------------------------------------------------------|
A|---------------------------------------------------------------------------|
F|---------------------------------------------------------------------------|
C|------------------------6-7-6----------------------------6-7-6-7-----------|
G|---------8-7---7--8-7-5-------8-----------8-7---7--8-7-5-------------------|
D|-0-0-0-0-----0--------------------0-0-0-0-----0----------------------------|


                                   |PM---------------------|                           
D|---------------------------------------------------------------------------|
A|---------------------------------------------------------------------------|
F|------------------------------------------------4-5-4---------8------------|
C|------------------------6-7-6-----------6-7-6---------7-6-10--6------------|
G|---------8-7---7--8-7-5-------8---5-7-8-------8-----------8----------------|
D|-0-0-0-0-----0-------------------------------------------------------------|


   |PM--------------------|                                                              
D|----------------------------------|
A|----------------------------------|
F|-5-4------------------------------|
C|-----7-6-----------------9--------|
G|---------8-7-5-7-8-7-5-3-7--------|
D|----------------------------------|


***********************************
| PM  palm mute
| ~   vibrato
***********************************
Suggest correction
Give kudos to tab author, rate the tab!
1 2 3 4 5
comments
print report bad tab
guest
You may want to rate the tab now too:
select rating
Wanna post a correction for this tab? Suggest correction