Oops, an error
Loading. Please wait.

Awake bass

version 2
version 2

Whole song

Interactive

by Finch
121 views 1 this week
no commentswrite comment
1 2 3 4 5
3 more votes to show rating
add to favorites
×
Save as Personal and add changes to this tab that will be seen only by you. Learn more ›
×
You can save this tab as Personal to edit and correct it or add notes. All changes will be seen only by you. Learn more »
launch autoscroll
font size
0
reset
guitar tuner
edit
Autoscroll
slow
fast
+/-
esc
set tempo
stop
Author
Difficulty
Finch - Awake
Album: What It Is To Burn

bass tab

by : doky 2007
taquilleros_de_sudamerica_maroyu_el_grupo_tropical_del_momento@hotmail.com

5-stringed bass
G D A E B

   INTRO
G-|------------|
D-|------------|
A-|-----444444-|
E-|-666--------|
B-|------------|
                                                                              

   VERSO 1
G-|-----------------------|
D-|-----------------------|
A-|-------------9h11-9----|
E-|-6-------9----------11-|
B-|-----2-----------------|
                                                                              

   VERSO 2
G-|-------------------|
D-|-------------------|
A-|-------------------|
E-|-666---------4-2---|
B-|-----222-222-----2-|
                                                                              

   CORO
G-|-------------------|-----------|----------------|
D-|-------------------|-----------|----------------|
A-|-------------44444-|-----------|-----------4----|
E-|-11111-22222-------|-----------|-1----2---------|
B-|-------------------|-----------|----------------|
                        variacion                                              

   MIDDLE
G-|---------------|---|---------------|-------------------|---------------|
D-|---------------|---|---------------|-------------------|---------------|
A-|---------------|---|--------444444-|-------------------|---------------|
E-|-6-------------|---|-666666--------|-------------------|-666666--------|
B-|--------2------|---|---------------|-------------------|--------222222-|
                    +                   tambien puede ser                      

   FIN
G-|------------------|
D-|------------------|
A-|------------------|
E-|-1----2-----------|
B-|-----------2------|
                       
Ma-mando congratulaciones a todas las personas que componian la seccion de Percusion de la banda
del Instituto Americano del año 2004 incluido para el uaripoler, ese ultimo
año estaba bien tara oe y hemos salido harto a marchar, por la perez y por una calle llena
de cantinaas.

doky2007                                                       

            
            
Suggest correction
Creating personal tab
Creating personal tab
You can edit any tab online and save it as your Personal.

You can edit, replace or remove any tab part or add personal notes – all changes will be seen only by you.

Personal tabs can be accessed anytime from any device, even offline.
Learn more »
Give kudos to tab author, rate the tab!
1 2 3 4 5
comments
print report bad tab
guest
You may want to rate the tab now too:
select rating
Wanna post a correction for this tab? Suggest correction