Oops, an error
Loading. Please wait.

Brother Bleed Brother tab

version 1
version 1

Whole song

by Finch
1,152 views 1 this week
2 commentsread comments
1 2 3 4 5
2 more votes to show rating
add to favorites
×
Save as Personal and add changes to this tab that will be seen only by you. Learn more ›
×
You can save this tab as Personal to edit and correct it or add notes. All changes will be seen only by you. Learn more »
launch autoscroll
font size
0
reset
how to read this tab
guitar tuner
edit
Autoscroll
slow
fast
+/-
esc
set tempo
stop
Author
Brother Bleed Brother by Finch - Say Hello To Sunshine
-----------------------------------------
Tabbed by TeamDragon aka Mark Weeks! 
-----------------------------------------
The Tuning for this song is;
eb
Bb
Gb
Db
Ab
Db

There were a few errors in the tab I posted before, this is the correct version.



|--------------------------------|
|---6-6--------------------------|
|---9-9v-------------------------|
|--------------------------------|
|--------------------------------|
|--------------------------------|

|--------------------------------|
|--------------------------------|
|--------9----7----5----2--------|
|--7-----x----x----x----x--------|
|--7-----7x8--5x4--3x4--4x3------|
|--7x8---------------------------|x2

Verse
|--------------------------------|
|--------------------------------|
|--------9----7----5----2--------|
|--7-----x----x----x----x--------|
|--7-----7x8--5x4--3x4--4x3------|
|--7x8---------------------------|x2
   *     *    *    *    *

|--------------------------------|
|--------------------------------|
|-------9----8--8----------------|
|-------x----x--x--let ring------|
|-------7x4--6--6----------------|
|--------------------------------| 1st time

|--------------------------------|
|--------------------------------|
|-------9----8-------------------|
|-------x----x----let ring-------|
|-------7x4--6-------------------|
|--------------------------------| 2nd time

between verse and chorus

|--------------------------------------|
|--------------------------------------|
|----2---2---2---2-2--2--2--2--2-------|
|--------------------------------------|
|--------------------------------------|
|--0---0---0---3---3-3--0-0-0---3-ring-| 

Chorus
Figure out the rythm, it aint that hard >=)
|-------------------------0------|
|-------------------------0------|
|--5--5-7---5--10-12------0------|
|--3--x-x---3--x--x--------------|
|--3--7s9---3--8s-10-------------|
|--3--------3--------------------|

|--------------------------------|
|--------------------------------|
|--------9----7----5----2--------|
|--7-----x----x----x----x--------|
|--7-----7x8--5x4--3x4--4x3------|
|--7x8---------------------------|

Verse (2nd time)
(Guitar 1, background)
|--------------------------------|
|--------------------------------|
|--------9----7----5----2--------|
|--7-----x----x----x----x--------|
|--7-----7x8--5x4--3x4--4x3------|
|--7x8---------------------------|
   *     *    *    *    *
Guitar 2 (faded foreground melody)
|--8---8---8---8----8---8---8---8|
|----5---5---5---5----4---4---4--|
|--------------------------------|
|--------------------------------|
|--------------------------------|
|--------------------------------|

(faded foreground melody)
|--------------------------------|
|--6-------5---------------------|
|--9x10----8x10------------------|
|--------------------------------|
|--------------------------------|
|--------------------------------|x2

|------------------------------------0--|
|------------------------------------0--|
|----5----5----5----5----5-5-----5---0--|
|-3----3----3----3----3------3-3--------|
|-3----3----3----3----3------3-3--------|
|-3----3----3----3----3------3-3--------|x2


|--------------------------------|
|-----3h5-5h7-3h5----------------|
|-3h5-------------3h5------------|
|--------------------------------|
|--------------------------------|
|--------------------------------|
|-----3h5-5h7-3h5----------------|
|-3h5-------------3h5^-----------|
|--------------------------------|
|--------------------------------|
|--------------------------------|

|------------------------------------0--|
|------------------------------------0--|
|----5----5----5----5----5-5-----5---0--|
|-3----3----3----3----3------3-3--------|
|-3----3----3----3----3------3-3--------|
|-3----3----3----3----3------3-3--------|x2

|--------------------------------|
|--------------------------------|
|---------------------7-------4--|
|------------------s5---5--------|
|--------------------------------|
|--------------------------6-----|

breakdown before last chorus
|--------------------------------|
|--------------------------------|
|-7---6--------------------------|
|-x---x--------------------------|
|-5x4-4x8------------------------|
|--------------------------------|

Chorus
|--------------------------------|
|--------------------------------|
|--5--5-7---4--10-12-------------|
|--3--x-x---2--x--x--------------|
|--3--7s9---2--8s-10-------------|
|--3--------2--------------------|

Ending

|--------------------------------|
|--------------------------------|
|-5-----7-----9----10----9-------|
|-x-----x-----x----x-----x-------|
|-3x4---5x4---7-x4-8-x4--7-------|
|--------------------------------|



            
            
Suggest correction
Creating personal tab
Creating personal tab
You can edit any tab online and save it as your Personal.

You can edit, replace or remove any tab part or add personal notes – all changes will be seen only by you.

Personal tabs can be accessed anytime from any device, even offline.
Learn more »
Give kudos to tab author, rate the tab!
1 2 3 4 5
comments
print report bad tab
2 comments total.
+1 reply
alexgarch 10 Apr 25, 2007 05:45 PM

its still not right bro

0 reply
maximushyrule 690 Oct 07, 2009 05:10 PM

no...

guest
You may want to rate the tab now too:
select rating
Wanna post a correction for this tab? Suggest correction