Oops, an error
Loading. Please wait.

Ender bass

version 3
version 3

Whole song

Interactive

by Finch
222 views 1 this week
no commentswrite comment
1 2 3 4 5
3 more votes to show rating
add to favorites
×
Save as Personal and add changes to this tab that will be seen only by you. Learn more ›
×
You can save this tab as Personal to edit and correct it or add notes. All changes will be seen only by you. Learn more »
launch autoscroll
font size
0
reset
guitar tuner
edit
Autoscroll
slow
fast
+/-
esc
set tempo
stop
Author
Difficulty
Finch - Ender
Album: What It Is To Burn

bass tab

by : doky 2007
taquilleros_de_sudamerica_maroyu_el_grupo_tropical_del_momento@hotmail.com

5-stringed bass
G D A E B

   VERSO 1
G-|----------------|
D-|----------------|
A-|----------------|
E-|-4----2---------|
B-|-----------2----|
                                                                              

   VERSO 2
G-|-----------------------|
D-|-----------------------|
A-|-----------------------|
E-|-4444/6\2222-----------|
B-|-------------2----2----|
                                                                              

   CORO 1
G-|------|---------------------------------|
D-|------|---------------------------------|
A-|------|---------------------------------|
E-|------|-6-6666-888-9-9999-2-2222--------|
B-|-2222-|--------------------------2-2222-|
                                                                              

   CORO 2
G-|--------------------------|
D-|--------------------------|
A-|--------------------------|
E-|-4444/6\22222222----------|
B-|-----------------22222222-|
                                                                              

   FIN
G-|--------|
D-|--------|
A-|--------|
E-|-6------|
B-|--------|
                                                                              
les mando unos salutos grandes a mis amigos de QB de la promo 2004 TM que pasabamos
en el aula del tercer piso al fondo entrando por la derecha, 2 pisos encima del baño
de chicas y con ventanas de madera en el que un dia limpie la pizarra con mi cabeza
y me rebolque de emocion en el suelito.

doky2007

            
            
Suggest correction
Creating personal tab
Creating personal tab
You can edit any tab online and save it as your Personal.

You can edit, replace or remove any tab part or add personal notes – all changes will be seen only by you.

Personal tabs can be accessed anytime from any device, even offline.
Learn more »
Give kudos to tab author, rate the tab!
1 2 3 4 5
comments
print report bad tab
guest
You may want to rate the tab now too:
select rating
Wanna post a correction for this tab? Suggest correction