Oops, an error
Loading. Please wait.

Stay With Me bass

version 4
version 4

Whole song

Interactive

by Finch
744 views 3 this week
no commentswrite comment
1 2 3 4 5
2 more votes to show rating
add to favorites
×
Save as Personal and add changes to this tab that will be seen only by you. Learn more ›
×
You can save this tab as Personal to edit and correct it or add notes. All changes will be seen only by you. Learn more »
launch autoscroll
font size
0
reset
guitar tuner
edit
Autoscroll
slow
fast
+/-
esc
set tempo
stop
Finch
Stay With Me
What It Is To Burn
2002
Submitted by: paramore_fans@yahoo.com


Note: I noticed that most of the bass tabs for this song here
at ultimate-guitar is wrong!!! this bass tab I created is 100% correct!!!
I guarantee you that this bass tab will satisfy you!!!


Tuning: Standard EADG for 4 string and standard BEADG for 5 string
also standard BEADGC for 6 string bass!! I'm going to use 4 string


Key: Bb


~ means hold
/ - means slide up


Intro: Drum rolls then
      Bb         Gm
G|----------|----------|
D|----------|----------|
A|-1-1--1-1-|----------| x2
E|----------|-3-3--3-3-|
      x2         x2


     Eb
G|-------|
D|-------|
A|-6~----|
E|-------|


Verse 1:

Once again your eyes making hard to..
        Bb                 Eb
G|-----------------|-----------------|
D|-----------------|-----------------|
A|-1-1-1-1-1-1-1-1-|-6-6-6-6-6-6-6-6-|
E|-----------------|-----------------|
        x2                 x2

..say goodbye so I just keep driving
        Bb                Gm                 F
G|-----------------|-----------------|-----------------|
D|-----------------|-----------------|-----------------|
A|-1-1-1-1-1-1-1-1-|-----------------|-----------------|
E|-----------------|-3-3-3-3-3-3-3-3-|-1-1-1-1-1-1-1-1-|
        x2

Where you wanna go it doesn't really
        Bb                 Eb
G|-----------------|-----------------|
D|-----------------|-----------------|
A|-1-1-1-1-1-1-1-1-|-6-6-6-6-6-6-6-6-|
E|-----------------|-----------------|
        x2                 x2

matter as long as you are here with..
        Bb                Gm                 F
G|-----------------|-----------------|-----------------|
D|-----------------|-----------------|-----------------|
A|-1-1-1-1-1-1-1-1-|-----------------|-----------------|
E|-----------------|-3-3-3-3-3-3-3-3-|-1-1-1-1-1-1-1-1-|
        x2

..me with me with me...
G|----------------|
D|----------------|
A|-6~--6~--6~--6~-|
E|----------------|


Chorus:

whoa there's something in the air tonight
Something that makes me feel alive and I said
      Bb         Gm
G|----------|----------|
D|----------|----------|
A|-1-1--1-1-|----------|
E|----------|-3-3--3-3-|
      x2         x2

whoa What were the words that you said to...
                      Bb
G|----------------------------------------------------|
D|----------------------------------------------------|
A|-1-1--1-1--1/13-13-13-13-13-13-13-13-13-13-1-1--1-1-|
E|----------------------------------------------------|

...me That made me feel so special now
      Gm      Eb
G|----------|----|
D|----------|----|
A|----------|-6~-|
E|-3-3--3-3-|----|
      x2


Verse 2: Do similar pattern to verse 1


Interlude:

    Eb
G|---------|
D|---------|
A|-6~---6~-|
E|---------|


Bridge: Guitar 2 doing the plucking simultaneously!!!
         Bb                Cm                Eb
G|-----------------|-----------------|-----------------|
D|-----------------|-----------------|-1-1-1-1-1-1-1-1-|
A|-1-1-1-1-1-1-1-1-|-3-3-3-3-3-3-3-3-|-----------------|
E|-----------------|-----------------|-----------------|
                                             x2

         Gm                F                 Eb
G|-----------------|-----------------|-----------------|
D|-----------------|-----------------|-----------------|
A|-----------------|-----------------|-6-6-6-6-6-6-6-6-|
E|-3-3-3-3-3-3-3-3-|-1-1-1-1-1-1-1-1-|-----------------|
                                             x2


Stay with me
         Bb                Cm                Eb
G|-----------------|-----------------|-----------------|
D|-----------------|-----------------|-1-1-1-1-1-1-1-1-|
A|-1-1-1-1-1-1-1-1-|-3-3-3-3-3-3-3-3-|-----------------|
E|-----------------|-----------------|-----------------|
                                             x2

Cigarettes in open air Hand in hand And I said
         Gm                F                 Eb
G|-----------------|-----------------|-----------------|
D|-----------------|-----------------|-----------------|
A|-----------------|-----------------|-6-6-6-6-6-6-6-6-|
E|-3-3-3-3-3-3-3-3-|-1-1-1-1-1-1-1-1-|-----------------|
                                             x2

Stay with me
         Bb                Cm                Eb
G|-----------------|-----------------|-----------------|
D|-----------------|-----------------|-1-1-1-1-1-1-1-1-|
A|-1-1-1-1-1-1-1-1-|-3-3-3-3-3-3-3-3-|-----------------|
E|-----------------|-----------------|-----------------|
                                             x2

Cause every star that I see Is brighter than the last so
         Gm                F                 Eb
G|-----------------|-----------------|-----------------|
D|-----------------|-----------------|-----------------|
A|-----------------|-----------------|-6-6-6-6-6-6-6-6-|
E|-3-3-3-3-3-3-3-3-|-1-1-1-1-1-1-1-1-|-----------------|
                                             x2

Stay with me
         Bb
G|-------------------|
D|-------------------|
A|-1--1--1---1--1--1-|
E|-------------------|

Cigarettes in open air Hand in hand And I said
         Gm
G|-------------------|
D|-------------------|
A|-------------------|
E|-3--3--3---3--3--3-|

Stay with me
         Bb
G|-------------------|
D|-------------------|
A|-1--1--1---1--1--1-|
E|-------------------|

Cause every star that I see Is brighter than the last so
         Gm
G|-------------------|
D|-------------------|
A|-------------------|
E|-3--3--3---3--3--3-|


Outro: Drum rolls!!!

Stay with me
         Bb                Cm                Eb
G|-----------------|-----------------|-----------------|
D|-----------------|-----------------|-1-1-1-1-1-1-1-1-|
A|-1-1-1-1-1-1-1-1-|-3-3-3-3-3-3-3-3-|-----------------|
E|-----------------|-----------------|-----------------|
                                             x2

Cigarettes in open air Hand in hand And I said
         Gm                F                 Eb
G|-----------------|-----------------|-----------------|
D|-----------------|-----------------|-----------------|
A|-----------------|-----------------|-6-6-6-6-6-6-6-6-|
E|-3-3-3-3-3-3-3-3-|-1-1-1-1-1-1-1-1-|-----------------|
                                             x2

Stay with me
         Bb                Cm                Eb
G|-----------------|-----------------|-----------------|
D|-----------------|-----------------|-1-1-1-1-1-1-1-1-|
A|-1-1-1-1-1-1-1-1-|-3-3-3-3-3-3-3-3-|-----------------|
E|-----------------|-----------------|-----------------|
                                             x2

Cause every star that I see Is brighter than the last so
         Gm                F                 Eb
G|-----------------|-----------------|-----------------|
D|-----------------|-----------------|-----------------|
A|-----------------|-----------------|-6-6-6-6-6-6-6-6-|
E|-3-3-3-3-3-3-3-3-|-1-1-1-1-1-1-1-1-|-----------------|
                                             x2

Stay with me
      Bb       Cm      Eb(hold)
G|---------|---------|----|
D|---------|---------|-1~-|
A|-1--1--1-|-3--3--3-|----|
E|---------|---------|----|
Suggest correction
Creating personal tab
Creating personal tab
You can edit any tab online and save it as your Personal.

You can edit, replace or remove any tab part or add personal notes – all changes will be seen only by you.

Personal tabs can be accessed anytime from any device, even offline.
Learn more »
Give kudos to tab author, rate the tab!
1 2 3 4 5
comments
print report bad tab
guest
You may want to rate the tab now too:
select rating
Wanna post a correction for this tab? Suggest correction