Oops, an error
Loading. Please wait.

Without You Here tab

version 1
version 1
by Finch
2,607 views 1 this week
2 commentsread comments
1 2 3 4 5
2 more votes to show rating
add to favorites
×
Save as Personal and add changes to this tab that will be seen only by you. Learn more ›
×
You can save this tab as Personal to edit and correct it or add notes. All changes will be seen only by you. Learn more »
launch autoscroll
font size
0
reset
how to read this tab
guitar tuner
edit
Autoscroll
slow
fast
+/-
esc
set tempo
stop
song: without you here
band: finch
album: what it is to burn
tuning: low to high (Db, Ab, Db, Gb, Bb, Eb) 

this song needs to be tabbed out correctly, finch is awesome and so is this song
the rythm is not tabbed out sorry
intro strum every once in a while
|-------------------------------------------|
|-------------------------------------------|
|-8-----------------------------------------|
|-x-----------------------------------------|
|-6~~~~-------------------------------------|
|-------------------------------------------| 

verse
once again strum occasionally
|-------------------------------------------|
|-------------------------------------------|
|-9-----------8-----------------------------|
|-x-----------x-----------------------------|
|-7-----------6-----------------------------|
|-------------------------------------------|
it sounds like theres 3 diff. chords buts its really just the bass 
harmonizing w/ the guitar

pre chorus

|-------------------------------------------|
|-------------------------------------------|
|------------------13-13-13-13-13-16-16-16--|
|-xxxxxx-xxxxxxxx--xx-xx-xx-xx-xx-xx-xx-xx--|
|-777777-99999999--11-11-11-11-11-14-14-14--|
|-------------------------------------------|

chorus

|-----------------------------------------------|
|-----------------------------------------------|
|-----------------------------------------------|
|-------------44444------------------4444-------|
|-66666-22222-22222-44444-66xxxx2222-2222-44444-|
|-66666-22222-------44444-66xxxx2222------44444-|

bridge/ final chorus

|-------|------------------------------------|
|-------|------------------------------------|
|-------|------------------------------------|
|-------|--4444------------------------------|
|11111pm|--2222-2222-6666-2222---------------|
|11111--|-------2222-6666-2222---------------|

            
            
Suggest correction
Creating personal tab
Creating personal tab
You can edit any tab online and save it as your Personal.

You can edit, replace or remove any tab part or add personal notes – all changes will be seen only by you.

Personal tabs can be accessed anytime from any device, even offline.
Learn more »
Give kudos to tab author, rate the tab!
1 2 3 4 5
comments
print report bad tab
2 comments total.
0 reply
ajc 255 Jun 01, 2004 08:00 PM

I play the verse like this, cause you cal tell the note goes lower, I'd say this sounds better.

|----------|
|----------|
|-9--8--8--|
|-x--x--x--|
|-7--6--6--|
|-------6--|

The rest is pretty much perfect =D

0 reply
IanvomSaal 501 Jul 09, 2004 08:00 PM

I don't know who this ug stranger is, but he sucks, just like this tab - again, linares would be disappointed

guest
You may want to rate the tab now too:
select rating
Wanna post a correction for this tab? Suggest correction