Oops, an error
Loading. Please wait.

Without You Here tab

version 6
version 6
by Finch
1,788 views 1 this week
3 commentsread comments
1 2 3 4 5
x 3
add to favorites
×
Save as Personal and add changes to this tab that will be seen only by you. Learn more ›
×
You can save this tab as Personal to edit and correct it or add notes. All changes will be seen only by you. Learn more »
launch autoscroll
font size
0
reset
how to read this tab
guitar tuner
edit
Autoscroll
slow
fast
+/-
esc
set tempo
stop
Author
-------------------------------------------------------------------------------
                             SONG NAME - Band Name
-------------------------------------------------------------------------------
Tabbed by:Miser123 "Miguel"
Email:constipationunderneath@hotmail.com

Tuning:Standard

This is %100 Correct, I saw a video of Finch doing an acoustic session. This is the tabs he used.
Figure out the strumming yourself, It's pretty simple.



Intro
e|---------------------------------------------------------------------------|
B|---------------------------------------------------------------------------|
G|--8---------8------------8-----------------9-------------------------------|
D|--x---------x------------x-----------------x-------------------------------| 
A|--6---------4------------6-----------------7-------------------------------|
E|-------------------------4-------------------------------------------------|


Verse
e|---------------------------------------------------------------------------|
B|---------------------------------------------------------------------------|
G|--8---------8------------8-----------------9-------------------------------|
D|--x---------x------------x-----------------x-------------------------------|
A|--6---------4------------6-----------------7-------------------------------|
E|-------------------------4-------------------------------------------------|


Pre-chorus
e|---------------------------------------------------------------------------|
B|---------------------------------------------------------------------------|
G|--9---------11--------13--------15-----------------------------------------|
D|--x---------x---------x---------x------------------------------------------|
A|--7---------9---------11--------13-----------------------------------------|
E|---------------------------------------------------------------------------|


Chorus   
(Listen to the song for chorus Duration)
e|---------------------------------------------------------------------------|
B|---------------------------------------------------------------------------|
G|----4---------8----------3-------------------------------------------------|
D|----4---------8----------3-------------------------------------------------|
A|----2---------6----------1-------------------------------------------------|
E|---------------------------------------------------------------------------|

Verse
e|---------------------------------------------------------------------------|
B|---------------------------------------------------------------------------|
G|--8---------8------------8-----------------9-------------------------------|
D|--x---------x------------x-----------------x-------------------------------|
A|--6---------4------------6-----------------7-------------------------------|
E|-------------------------4-------------------------------------------------|

Pre-chorus
e|---------------------------------------------------------------------------|
B|---------------------------------------------------------------------------|
G|--9---------11--------13--------15-----------------------------------------|
D|--x---------x---------x---------x------------------------------------------|
A|--7---------9---------11--------13-----------------------------------------|
E|---------------------------------------------------------------------------|

Chorus   
(Listen to the song for chorus Duration)
e|---------------------------------------------------------------------------|
B|---------------------------------------------------------------------------|
G|----4---------8----------3-------------------------------------------------|
D|----4---------8----------3-------------------------------------------------|
A|----2---------6----------1-------------------------------------------------|
E|---------------------------------------------------------------------------|

Bridge
e|------|--------------------------------------------------------------------|
B|------|--------------------------------------------------------------------|
G|--9---|-----4-------1----6-----1-------------------------------------------|
D|--x---|-----4-------2----6-----2-------------------------------------------|
A|--7---|-----2-------2----4-----2-------------------------------------------|
E|------|--------------------------------------------------------------------|


| /  slide up
| \  slide down
| h  hammer-on
| p  pull-off
| ~  vibrato
| +  harmonic
| x  Mute note
===============================================================================

            
            
Suggest correction
Creating personal tab
Creating personal tab
You can edit any tab online and save it as your Personal.

You can edit, replace or remove any tab part or add personal notes – all changes will be seen only by you.

Personal tabs can be accessed anytime from any device, even offline.
Learn more »
Give kudos to tab author, rate the tab!
1 2 3 4 5
comments
print report bad tab
3 comments total.
0 reply
Stevie B 390 Aug 03, 2008 04:55 AM

ive also seen that video. the chord he starts on is

G|-8-
D|-x-
A|-7-
E|---

look carefully and you'll see when he slides down from the last chord back to the start he doesnt move one of his fingers.
Apart from that this tabs perfect.
Hope this helps :D

0 reply
ibanezeric82 103 Jul 20, 2009 09:03 PM

Chorus is wrong and the 13x15 should be 14x16.

0 reply
chrischeng 20 Aug 19, 2013 10:16 AM

the chorus really goes....
e|----------------------------------------------------------------------|
B|----------------------------------------------------------------------|
G|----4----4-----8----------4--------------------------------------------|
D|----4----2-----6----------2--------------------------------------------|
A|----2----2-----6----------2--------------------------------------------|
E|---------2-----6----------2-------------------------------------------|

Also I am almost positive the tuning is in Db not standard, other than that great tab the only one that is played correctly!!!!

guest
You may want to rate the tab now too:
select rating
Wanna post a correction for this tab? Suggest correction