Oops, an error
Loading. Please wait.

Absent Elements tab

version 2
version 2

Whole song

Interactive

43 views 3 this week
no commentswrite comment
1 2 3 4 5
2 more votes to show rating
add to favorites
×
Save as Personal and add changes to this tab that will be seen only by you. Learn more ›
×
You can save this tab as Personal to edit and correct it or add notes. All changes will be seen only by you. Learn more »
launch autoscroll
font size
0
reset
how to read this tab
guitar tuner
edit
Autoscroll
slow
fast
+/-
esc
set tempo
stop
About this tab version
Based off the studio recording. Was this info helpful? Yes No
Finger Eleven
Absent Elements
Drop Db (Db,Ab,Db,Gb,Bb,Eb)
Tempo 84bpm

   [Intro]
eb|-------------------------------------|--------------------------------------|
Bb|-------------------------------------|--------------------------------------|
Gb|--6-6-6-6-6-6-6-6-6------------------|--6-6-6-6-6---------------------------|
Db|-------------------------------------|--------------------------------------|
Ab|--4-4-4-4-4-4-4-4-4-5----5-5-7----7--|--4-4-4-4-4-5----5-5-7----7-5-7----7--|
Db|--------------------5----5-5-7----7--|------------5----5-5-7----7-5-7----7--|
  |                                                                            |
eb|-------------------------------------|--------------------------------------|
Bb|-------------------------------------|--------------------------------------|
Gb|-------------------------------------|--------------------------------------|
Db|-------------------------------------|--------------------------------------|
Ab|--------------------5----5-5-7----7--|------------5----5-5-7----7-5-7----7--|
Db|--------------------5----5-5-7----7--|------------5----5-5-7----7-5-7----7--|
                                      3x

eb|-------------------------------------|------------------------------------------|
Bb|-------------------------------------|------------------------------------------|
Gb|--6-6-6-6-6-6-6-6-6------------------|--6-6-6-6-6-------------------------------|
Db|-------------------------------------|------------------------------------------|
Ab|--4-4-4-4-4-4-4-4-4-5----5-5-7----7--|--4-4-4-4-4-5----5-5-7----7-7-12----12-9--|
Db|--------------------5----5-5-7----7--|------------5----5-5-7----7-7-12----12-9--|
                                      3x

   [Verse]
eb|------------------------------------|-------------------------------------|
Bb|--5-5-5-5-5-1---1-3-3-3-3-3-1----1--|--5-5-5-5-5-1---1-3-3-3-3-3-1-----1--|
Gb|--5-5-5-5-5-2---2-4-4-4-4-4-2----2--|--5-5-5-5-5-2---2-4-4-4-4-4-2-----2--|
Db|------------------------------------|-------------------------------------|
Ab|------------------------------------|-------------------------------------|
Db|------------------------------------|-------------------------------------|
  |                                                                          |
eb|------------------------------------|-------------------------------------|
Bb|------------------------------------|-------------------------------------|
Gb|------------------------------------|-------------------------------------|
Db|------------------------------------|-------------------------------------|
Ab|------------------------------------|-------------------------------------|
Db|--7-------7-------7-------7---------|--7-------7-------7-------7-------5--|

eb|------------------------------------|-------------------------------------|
Bb|--5-5-5-5-5-1---1-3-3-3-3-3-1----1--|--5-5-5-5-5-1---1-3-3-3-3-3-1-----1--|
Gb|--5-5-5-5-5-2---2-4-4-4-4-4-2----2--|--5-5-5-5-5-2---2-4-4-4-4-4-2-----2--|
Db|------------------------------------|-------------------------------------|
Ab|------------------------------------|-------------------------------------|
Db|------------------------------------|-------------------------------------|
  |                                                                          |
eb|------------------------------------|-------------------------------------|
Bb|------------------------------------|-------------------------------------|
Gb|------------------------------------|-------------------------------------|
Db|------------------------------------|-------------------------------------|
Ab|------------------------------------|-------------------------------------|
Db|--7-------7-------7-------7---------|--7-------7-------7-------9----------|

eb|------------------------------------|-------------------------------------|
Bb|--5-5-5-5-5-1---1-3-3-3-3-3-1----1--|--5-5-5-5-5-1---1-3-3-3-3-3-1-----1--|
Gb|--5-5-5-5-5-2---2-4-4-4-4-4-2----2--|--5-5-5-5-5-2---2-4-4-4-4-4-2-----2--|
Db|------------------------------------|-------------------------------------|
Ab|------------------------------------|-------------------------------------|
Db|------------------------------------|-------------------------------------|
  |                                                                          |
eb|------------------------------------|-------------------------------------|
Bb|------------------------------------|-------------------------------------|
Gb|------------------------------------|-------------------------------------|
Db|------------------------------------|-------------------------------------|
Ab|------------------------------------|-------------------------------------|
Db|--0-------0-------0-------0---------|--0-------0-------0-------0----------|

eb|------------------------------------|-----------------------------------|
Bb|--5-5-5-5-5-1---1-3-3-3-3-3-1----1--|--5-5-5-5-5-1---1-3-3-3-3-3-1-1-x--|
Gb|--5-5-5-5-5-2---2-4-4-4-4-4-2----2--|--5-5-5-5-5-2---2-4-4-4-4-4-2-2-x--|
Db|------------------------------------|-----------------------------------|
Ab|------------------------------------|-----------------------------------|
Db|------------------------------------|-----------------------------------|
  |                                                                        |
eb|------------------------------------|-----------------------------------|
Bb|------------------------------------|-----------------------------------|
Gb|------------------------------------|-----------------------------------|
Db|------------------------------------|-----------------------------------|
Ab|------------------------------------|-----------------------------------|
Db|--2-------2-------2-------2---------|--2-------2-------2-------2--------|

   [Chorus 1]
eb|----------------------------|-----------------------------|
Bb|--------5-5----5-5-5-5-5-0--|--------5-5----3-3----5-5-5--|
Gb|--------5-5----5-5-5-5-5----|--------5-5----4-4----5-5-5--|
Db|-----2----------------------|-----2-----------------------|
Ab|--0-------------------------|--0--------------------------|
Db|----------------------------|-----------------------------|
  |                                                          |
eb|----------------------------|-----------------------------|
Bb|--------3-------------------|--------3--------------------|
Gb|--------2-------------------|--------2--------------------|
Db|-----2----------------------|-----2-----------------------|
Ab|--0-------------------------|--0--------------------------|
Db|----------------------------|-----------------------------|

eb|-------------------------------|---------------------------------|
Bb|--1----3-3-3----5----5--1-1----|--1----3-3-3----5----5----1-1----|
Gb|--2----4-4-4----5----5--2-2----|--2----4-4-4----5----5----2-2----|
Db|-------------------------------|---------------------------------|
Ab|-------------------------------|---------------------------------|
Db|-------------------------------|---------------------------------|
  |                                                                 |
eb|-------------------------------|---------------------------------|
Bb|--------------0----------------|--------------0------------------|
Gb|--------------0----------------|--------------0------------------|
Db|-------------------------------|---------------------------------|
Ab|-------3-----------------------|-------3-------------------------|
Db|--3----------------------------|--3------------------------------|

eb|--------------------------------|--------------------------------|
Bb|------------/5----5----5-5-5-5--|------------/5----5----5-5-5-5--|
Gb|-------2----/5----5----5-5-5-5--|-------2----/5----5----5-5-5-5--|
Db|-------0------------------------|-------0------------------------|
Ab|--------------------------------|--------------------------------|
Db|--0-----------------------------|--0-----------------------------|
  |                                                                 |
eb|-------------0------------------|-------------0------------------|
Bb|-------------3------------------|-------------3------------------|
Gb|--------------------------------|--------------------------------|
Db|-------0------------------------|-------0------------------------|
Ab|-------0------------------------|-------0------------------------|
Db|--0-----------------------------|--0-----------------------------|

eb|-----------------------------------0--|--------------------------------------|
Bb|--1-1----3-3-3----5-5-5----1-3-3-3----|--1-1----1-3-3-3-5-5------------------|
Gb|--2-2----4-4-4----5-5-5----2-4-4-4----|--2-2----2-4-4-4-5-5------------------|
Db|--------------------------------------|--------------------------------------|
Ab|--------------------------------------|---------------------3----3-3-5----5--|
Db|--------------------------------------|---------------------3----3-3-5----5--|
  |                                                                             | Repeat Verse &
  |                                                                             | Chorus 1
eb|--------------------------------------|--------------------------------------|
Bb|---------------0----------------------|---------------0----------------------|
Gb|---------------4----------------------|---------------4----------------------|
Db|---------4----------------------------|---------4----------------------------|
Ab|--2-----------------------------------|--2------------------3----3-3-5----5--|
Db|--------------------------------------|---------------------3----3-3-5----5--|


   [Solo]
eb|-------|----------------------------------------|---------------------17~----17~---------|
Bb|-------|--17~----17~----------------------------|----------------------------------------|
Gb|--/14--|----------------14~----14~----16b-------|--17b----17~----14----------------------|
Db|-------|----------------------------------------|----------------------------------------|
Ab|-------|----------------------------------------|----------------------------------------|
Db|-------|----------------------------------------|----------------------------------------|
  |                                                                                         |
eb|-------|----------------------------------------|----------------------------------------|
Bb|-------|--1-1----1-1----1-1----1-1----1-1----1--|--1----1-1----1-1----1-1----1-1----1-1--|
Gb|-------|--2-2----2-2----2-2----2-2----2-2----2--|--2----2-2----2-2----2-2----2-2----2-2--|
Db|-------|--2-2----2-2----2-2----2-2----2-2----2--|--2----2-2----2-2----2-2----2-2----2-2--|
Ab|-------|--0-0----0-0----0-0----0-0----0-0----0--|--0----0-0----0-0----0-0----0-0----0-0--|
Db|-------|----------------------------------------|----------------------------------------|

eb|--19^------19^-------19^--------19---------|----------------------------------------|
Bb|--------------------------------------17~--|--(17~)------(17)\--17-15---------------|
Gb|-------------------------------------------|---------------------------16~--16b--r--|
Db|-------------------------------------------|----------------------------------------|
Ab|-------------------------------------------|----------------------------------------|
Db|-------------------------------------------|----------------------------------------|
  |                                                                                    |
eb|-------------------------------------------|----------------------------------------|
Bb|-------------------------------------------|----------------------------------------|
Gb|-------5-5----5-5----5-5----5-5----5-5-----|--5-5----5-5----5-5----5-5----5-5----5--|
Db|-------3-3----3-3----3-3----3-3----3-3-----|--3-3----3-3----3-3----3-3----3-3----3--|
Ab|-------3-3----3-3----3-3----3-3----3-3-----|--3-3----3-3----3-3----3-3----3-3----3--|
Db|-------3-3----3-3----3-3----3-3----3-3-----|--3-3----3-3----3-3----3-3----3-3----3--|

eb|----------------------------------15~----------|--17b-----17b--------r-17~-----------------/17--|
Bb|--14~-----------14-16-17~---16-17----------15--|------------------------------------------------|
Gb|----------------------------------------17-----|------------------------------------------------|
Db|-----------------------------------------------|------------------------------------------------|
Ab|-----------------------------------------------|------------------------------------------------|
Db|-----------------------------------------------|------------------------------------------------|
  |                                                                                                |
eb|-----------------------------------------------|------------------------------------------------|
Bb|--3----3-3----3-1-----1-1------1-3------3-3----|------3-3----3-3-----1-1------3-3------3-3------|
Gb|--2----2-2----2-2-----2-2------2-2------2-2----|------2-2----2-2-----2-2------2-2------2-2------|
Db|--0----0-0----0-0-----0-0------0-0------0-0----|------0-0----0-0-----0-0------0-0------0-0------|
Ab|--0----0-0----0-0-----0-0------0-0------0-0----|------0-0----0-0-----0-0------0-0------0-0------|
Db|--0----0-0----0-0-----0-0------0-0------0-0----|------0-0----0-0-----0-0------0-0------0-0------|

                       N         N            N        N      N
eb|--15~---------------17--------17--------|--19-------20-----22b--------------| gradual release of bend
Bb|---------17-----/17---------------------|-----------------------------------|
Gb|----------------------------------------|-----------------------------------|
Db|----------------------------------------|-----------------------------------|
Ab|----------------------------------------|-----------------------------------|
Db|----------------------------------------|-----------------------------------|
  |                                                                            |
eb|----------------------------------------|-----------------------------------|
Bb|--0-0----0-0----0-0----0-0----0-0----0--|--0----0-0----0-0-0-0--------------|
Gb|----------------------------------------|-----------------------------------|
Db|--4-4----4-4----4-4----4-4----4-4----4--|--4----4-4----4-4-4-4---------0-0--|
Ab|--2-2----2-2----2-2----2-2----2-2----2--|--2----2-2----2-2-2-2-3-3-3-3------|
Db|----------------------------------------|----------------------3-3-3-3-5-5--|

   [Chorus 2]
eb|-----------------------------------|-----------------------------------|----------------------------------|
Bb|--5---5-------------5---5----------|------5---5-------------5---5------|----------5---5-------------5---5-|
Gb|----5---5---5-7-4-7---5---5---5-7--|--4-7---5---5---5-7-4-7---5---5----|--5-7-4-7---5---5---5-7-4-7---5---|
Db|----------7-----------------7------|--------------7-----------------7--|------------------7---------------|
Ab|-----------------------------------|-----------------------------------|----------------------------------|
Db|-----------------------------------|-----------------------------------|----------------------------------|
  |  pm..................................................................................................... |
  |                                                                                                          |
eb|-----------------------------------|-----------------------------------|----------------------------------|
Bb|-----------------------------------|-----------------------------------|----------------------------------|
Gb|--2--------------------------------|-----------------------------------|----------------------------------|
Db|--2--------------------------------|-----------------------------------|----------------------------------|
Ab|--0--------------------------------|-----------------------------------|----------------------------------|
Db|-----------------------------------|-----------------------------------|----------------------------------|

eb|-----------------------------------|-----------------------------------|----------------------------------|
Bb|--------------5---5-------------5--|----5-------------5---5------------|----5---5-------------5---5-------|
Gb|--5---5-7-4-7---5---5---5-7-4-7----|--5---5---5-7-4-7---5---5---5-7-4--|--7---5---5---5-7-4-7---5---5---5-|
Db|----7-----------------7------------|--------7-----------------7--------|------------7-----------------7---|
Ab|-----------------------------------|-----------------------------------|----------------------------------|
Db|-----------------------------------|-----------------------------------|----------------------------------|
     pm.....................................................................................................

eb|-----------------------------------|-----------------------------------|
Bb|--------5---5-------------5---5----|------------5----------------------|
Gb|--7-4-7---5---5---5-7-4-7---5---5--|----5-7-4-7---5\-------------------|
Db|----------------7------------------|--7--------------------------------|
Ab|-----------------------------------|--------------------3-3-3-3-5-5-5--|
Db|-----------------------------------|--------------------3-3-3-3-5-5-5--|
     pm...............................................

eb|-------------------------------------|--------------------------------------|
Bb|--1-1-1-1----1-1-1-1-----------------|--1-1-1-1-1-1-1-1-1-------------------|
Gb|--2-2-2-2----2-2-2-2-----------------|--2-2-2-2-2-2-2-2-2-------------------|
Db|--2-2-2-2----2-2-2-2-----------------|--2-2-2-2-2-2-2-2-2-------------------|
Ab|--0-0-0-0----0-0-0-0--3-3-3-3-5-5-5--|--0-0-0-0-0-0-0-0-0--3----3-3-5----5--|
Db|----------------------3-3-3-3-5-5-5--|---------------------3----3-3-5----5--|
                                       3x
[Chorus 1 – 2x]

   [Outro]
eb|--17~--------(17)\-------------------|--17~--------(17)\-------------------|---------------------------|
Bb|-------------------------------------|-------------------------------------|-----------------17--------|
Gb|--------------------------------/14--|-------------------------------------|--14-14-14-14-14----14-14--|
Db|-------------------------------------|-------------------------------------|---------------------------|
Ab|-------------------------------------|-------------------------------------|---------------------------|
Db|-------------------------------------|-------------------------------------|---------------------------|
  |                                                                                                       |
eb|-------------------------------------|-------------------------------------|---------------------------|
Bb|-------------------------------------|-------------------------------------|---------------------------|
Gb|--2-2-2-2-2-2-2-2-2------------------|--2-2-2-2-2-2-2-2-2------------------|--2--2--2--2--2--2--2--2---|
Db|--2-2-2-2-2-2-2-2-2------------------|--2-2-2-2-2-2-2-2-2------------------|--2--2--2--2--2--2--2--2---|
Ab|--0-0-0-0-0-0-0-0-0-3----3-3-5----5--|--0-0-0-0-0-0-0-0-0-3----3-3-5----5--|--0--0--0--0--0--0--0--0---|
Db|--------------------3----3-3-5----5--|--------------------3----3-3-5----5--|---------------------------|
                                       2x

************************************

| x   Dead note
| r   Release
| b   Bend
| ^   Bend release
| /   Slide up
| \   Slide down
| ~   Vibrato
| N   Tremolo pick
| pm  palm mute

************************************


            
            
Suggest correction
Creating personal tab
Creating personal tab
You can edit any tab online and save it as your Personal.

You can edit, replace or remove any tab part or add personal notes – all changes will be seen only by you.

Personal tabs can be accessed anytime from any device, even offline.
Learn more »
Give kudos to tab author, rate the tab!
1 2 3 4 5
comments
print report bad tab
guest
You may want to rate the tab now too:
select rating
Wanna post a correction for this tab? Suggest correction