Oops, an error
Loading. Please wait.

Bones And Joints tab

version 2
version 2

Whole song

942 views 3 this week
1 commentread comment
1 2 3 4 5
2 more votes to show rating
add to favorites
×
Save as Personal and add changes to this tab that will be seen only by you. Learn more ›
×
You can save this tab as Personal to edit and correct it or add notes. All changes will be seen only by you. Learn more »
launch autoscroll
font size
0
reset
how to read this tab
guitar tuner
edit
Autoscroll
slow
fast
+/-
esc
set tempo
stop
Difficulty
Bones and Joints
Finger Eleven
Db-Ab-Db-Gb-Bb-Eb
Play around a bit with the strumming I've put.

Verse(at the end, slowly build your distortion)
--------------------------|
--0-00--0--0--0-0-000-000-|
--0-00--0--0--0-0-000-000-|
-5-----4--0--2------------|
--------------------------|
--------------------------|

Pre-Chorus
-----------------------------|
-----------------------------|
-----------------------5-555-|
-5-5-5-555-555-2-2-2-2-5-555-|
-5-5-5-555-555-2-2-2-2-3-333-|
-5-5-5-555-555-2-2-2-2-------|

Chorus(I'm putting ghost notes, but just strum them if ya want)
----------------------------------------------|
----------------------------------------------|
-------------------------2---0-----2---0---0--|
-5--7---5--5--7--5-5--1--1---1--0--0---0---0--|
-5--5---5--5--5--5-5--1-(1)-(1)-0-(0)-(0)-(0)-|
-5-(5)-(5)-5-(5)-5-5--1-(1)-(1)-0-(0)-(0)-(0)-|

-----------------------------------|
-----------------------------------|
-----------7-7-777-----------------|
-5--7---5--7-7-777--2--2-2--1-1-11-|
-5--5---5--5-5-555--2--2-2--1-1-11-|
-5-(5)-(5)----------2--2-2--1-1-11-|

The lead plays something along the lines of(could be bends):
--------------    ---------------|
--------------    ---------------|
--------------    ---------------|
--------------and ---------------|
-6p5-6p5-6p5--    -6p5-6p5-6p5-7-|
--------------    -------------7-|

Interlude 1(last time let the first 3-5-5 powerchord ring)
---------------------------|
---------------------------|
-------------5-5-5-555-555-|
-5--55-0--00-5-5-5-555-555-|
-5--55-0--00-3-3-3-333-333-|
-5--55-0--00---------------|

Interlude 2 is just the verse with this fill at the end:

--------0--------|
--------0--------|
-0-0-00-0--------|
-3-3-33-3--------|
-----------------|
-----------------|

After the last Chorus, ehdn the song on:

-----------------|
-----------------|
-----------------|
-7~--------------|
-5~--------------|
-5~--------------|

            
            
Suggest correction
Creating personal tab
Creating personal tab
You can edit any tab online and save it as your Personal.

You can edit, replace or remove any tab part or add personal notes – all changes will be seen only by you.

Personal tabs can be accessed anytime from any device, even offline.
Learn more »
Give kudos to tab author, rate the tab!
1 2 3 4 5
comments
print report bad tab
1 comment total.
0 reply
ibanezeric82 103 Aug 22, 2009 06:21 PM

waay off

guest
Wanna post a correction for this tab? Suggest correction