Oops, an error
Loading. Please wait.

Conversations tab

version 1
version 1

Whole song

855 views 3 this week
1 commentread comment
1 2 3 4 5
x 4
add to favorites
×
Save as Personal and add changes to this tab that will be seen only by you. Learn more ›
×
You can save this tab as Personal to edit and correct it or add notes. All changes will be seen only by you. Learn more »
launch autoscroll
font size
0
reset
how to read this tab
guitar tuner
edit
Autoscroll
slow
fast
+/-
esc
set tempo
stop
Artist: Finger Eleven
Title: Conversations
Album: Finger Eleven

Tuning: Db Ab Db Gb Bb eb


[Intro/Verse]
eb|--------7---------------------------------------------|
Bb|--------x---------------------------------------------|
Gb|--55555-4--77777-5--101010-1010-9-99-99999-999999-5---|
Db|--55555-5--55555-5---7-7-7--7-7-7-77-77777-555555-5---|  x4
Ab|--00000----88888-8------------------------------------|
Db|------------------------------------------------------|

eb|--xxxxxxxx---|
Bb|--xxxxxxxx---|
Gb|--xxxxxxxx---| (Do this pick string muting after the 3rd and 4th
Db|--xxxxxxxx---| time you play the verse part.)
Ab|--xxxxxxxx---|
Db|--xxxxxxxx---|


[Pre-Chorus]
eb|------0--55---|
Bb|----6----66---|
Gb|--7------77---|
Db|--------------|
Ab|--------------|
Db|--------------|


[Chorus]
eb|----------------------|
Bb|----------------------|
Gb|----5-6---5-6---------|
Db|--7-----7--------7-5--|  x3
Ab|---------------5------|
Db|----------------------|

eb|-------------------------|
Bb|-------------------------|
Gb|-------------------------|
Db|-------------------------|
Ab|--0-3-2--0-3-2-----------|
Db|---------------0---------|

[Verse]
eb|--------7---------------------------------------------|
Bb|--------x---------------------------------------------|
Gb|--55555-4--77777-5--101010-1010-9-99-99999-999999-5---|
Db|--55555-5--55555-5---7-7-7--7-7-7-77-77777-555555-5---|  x3
Ab|--00000----88888-8------------------------------------|
Db|------------------------------------------------------|

eb|--xxxxxxxx---|
Bb|--xxxxxxxx---|
Gb|--xxxxxxxx---|
Db|--xxxxxxxx---|
Ab|--xxxxxxxx---|
Db|--xxxxxxxx---|


[Pre-Chorus]
eb|------0--55---|
Bb|----6----66---|
Gb|--7------77---|
Db|--------------|
Ab|--------------|
Db|--------------|


[Chorus]
eb|----------------------|
Bb|----------------------|
Gb|----5-6---5-6---------|
Db|--7-----7--------7-5--|  x2
Ab|---------------5------|
Db|----------------------|

eb|-------------------------|
Bb|-------------------------|
Gb|-------------------------|
Db|-------------------------|
Ab|--0-3-2--0-3-2-----------|
Db|---------------0---------|


[Bridge]
eb|-----------------|- -|-------------------------|
Bb|-----------------|- -|-------------------------|
Gb|----22---00-2br--|-x8|-------------------------|
Db|-----------------|- -|-------------------------|
Ab|--1----4---------|- -|-------------------------|
Db|-----------------|- -|--000-222-333-/777-------|

eb|-----------------|- -|-------------------------|
Bb|-----------------|- -|-------------------------|
Gb|----22---00-2br--|-x2|-------------------------|
Db|-----------------|- -|-------------------------|
Ab|--1----4---------|- -|-------------------------|
Db|-----------------|- -|--000-222-333-/777-------|

eb|-----------------|- -|-----------------------------------------------|
Bb|-----------------|- -|-----------------------------------------------|
Gb|----22---00-2br--|-x2|-----------------------------------------------|
Db|-----------------|- -|-----------------------------------------------|
Ab|--1----4---------|- -|-----------------------------------------------|
Db|-----------------|- -|--000-222-333-/777--000-222-333-/10-1010-------|


eb|--5---|
Bb|--6---|
Gb|--7---| This part is played a bunch of times
Db|------| under the bassline, listen for timing.
Ab|------|
Db|------|


[Pre-Chorus]
eb|--55---|
Bb|--66---|
Gb|--77---|
Db|-------|
Ab|-------|
Db|-------|


[Chorus]
eb|-----------------------|
Bb|-----------------------|
Gb|----5-6---5-6----------|
Db|--7-----7--------7-5---|  x4
Ab|---------------5-------|
Db|-----------------------|


[Outro]
eb|--------|
Bb|--------|
Gb|--------|
Db|--------|
Ab|--------|
Db|--12\---|

eb|----------------------|
Bb|----------------------|
Gb|----------------------|
Db|----------------------|  x4
Ab|--0-3-2-0-3-2---------|
Db|--------------0-7-5---|

eb|--5555-55-55---|
Bb|--6666-66-66---|
Gb|--7777-77-77---|
Db|---------------|
Ab|---------------|
Db|---------------|

            
            
Suggest correction
Creating personal tab
Creating personal tab
You can edit any tab online and save it as your Personal.

You can edit, replace or remove any tab part or add personal notes – all changes will be seen only by you.

Personal tabs can be accessed anytime from any device, even offline.
Learn more »
comments
print report bad tab
1 comment total.
0 reply
bigbadjames 10 Oct 24, 2005 06:35 PM

I think you might have the key wrong.

guest
Wanna post a correction for this tab? Suggest correction