Oops, an error
Loading. Please wait.

Good Times tab

version 1
version 1

Whole song

Interactive

12,713 views 3 this week
11 commentsread comments
1 2 3 4 5
x 24
add to favorites
×
Save as Personal and add changes to this tab that will be seen only by you. Learn more ›
×
You can save this tab as Personal to edit and correct it or add notes. All changes will be seen only by you. Learn more »
launch autoscroll
font size
0
reset
how to read this tab
guitar tuner
edit
Autoscroll
slow
fast
+/-
esc
set tempo
stop
Artist - Finger Eleven.
Album - Finger Eleven(2003).
Song - Good Times.

Tuning - Db Ab Db Gb Bb Eb
KEY: / = slide.
     b = bend.
     p = pull off.
     v = vibrato.
     x = finger mute.
     r = ring out.

ONE OF THEIR BEST SONGS!!!

INTRO:

Eb|----------|
Bb|----------|
Gb|--0----0--|
Db|--4--4----| X8
Ab|--2-------|
Db|----------|
   A bass slide is played quickly before each riff above.

VERSE:
1st Part:
Eb|---------|  |----------|
Bb|---------|  |----------|
Gb|-6--9/11-|  |--0----0--|
Db|-6--9/11-|X4|--4--4----| X4
Ab|-4--7/-9-|  |--2-------|
Db|---------|  |----------|
2nd Part:
Eb|---------|  |----------|           |----------|
Bb|---------|  |----------|           |----------|
Gb|-6--9/11-|  |--0----0--|           |--11------|
Db|-6--9/11-|X4|--4--4----|X2 ------> |--11--9/--| X1
Ab|-4--7/-9-|  |--2-------|           |---9--9/--|
Db|---------|  |----------|           |---9--9/--|

CHORUS:
1st Part:
Eb|----------------------------------------------|----------------------|
Bb|----------------------------------------------|----------------------|
Gb|--4--7-7/9-9/11--4--7-7\6-6/9--4--7-7/9-9/11--|--14-14-14-14--14-14--|
Db|--4--7-7/9-9/11--4--7-7\6-6/7--4--7-7/9-9/11--|--14-14-14-14--14-14--| X1
Ab|--2--5-5/7-7/-9--2--5-5\4-4/7--2--5-5/7-7/-9--|--12-12-12-12--12-12--|
Db|----------------------------------------------|----------------------|
2nd Part:
Eb|----------------------------------------------|-------------|
Bb|----------------------------------------------|-------------|
Gb|--4--7-7/9-9/11--4--7-7\6-6/9--4--7-7/9-9/11--|--11-7--7----|
Db|--4--7-7/9-9/11--4--7-7\6-6/7--4--7-7/9-9/11--|--11-7--7-7--| X1
Ab|--2--5-5/7-7/-9--2--5-5\7-4/7--2--5-5/7-7/-9--|---9-5--5-7--|
Db|----------------------------------------------|----------7--|

FILL:

Eb|------|
Bb|------|
Gb|--0r--|
Db|--4r--| X1
Ab|--2r--|
Db|------|

VERSE:
1st Part:
Eb|---------|  |----------|
Bb|---------|  |----------|
Gb|-6--9/11-|  |--0----0--|
Db|-6--9/11-|X4|--4--4----| X2
Ab|-4--7/-9-|  |--2-------|
Db|---------|  |----------|
2nd Part:
Eb|---------|  |--0--|
Bb|---------|  |--0--|
Gb|-6--9/11-|  |--2--|
Db|-6--9/11-|X4|--2--| X1
Ab|-4--7/-9-|  |--0--|
Db|---------|  |--2--|

CHORUS:
Part 1:
Eb|----------------------------------------------|----------------------|
Bb|----------------------------------------------|----------------------|
Gb|--4--7-7/9-9/11--4--7-7\6-6/9--4--7-7/9-9/11--|--14-14-14-14--14-14--|
Db|--4--7-7/9-9/11--4--7-7\6-6/7--4--7-7/9-9/11--|--14-14-14-14--14-14--| X1
Ab|--2--5-5/7-7/-9--2--5-5\4-4/7--2--5-5/7-7/-9--|--12-12-12-12--12-12--|
Db|----------------------------------------------|----------------------|
2nd Part:
Eb|----------------------------------------------|-------------|
Bb|----------------------------------------------|-------------|
Gb|--4--7-7/9-9/11--4--7-7\6-6/9--4--7-7/9-9/11--|--11-7--7----|
Db|--4--7-7/9-9/11--4--7-7\6-6/7--4--7-7/9-9/11--|--11-7--7-7--| X1
Ab|--2--5-5/7-7/-9--2--5-5\7-4/7--2--5-5/7-7/-9--|---9-5--5-7--|
Db|----------------------------------------------|----------7--|
1st Part(Repeated)
Eb|----------------------------------------------|----------------------|
Bb|----------------------------------------------|----------------------|
Gb|--4--7-7/9-9/11--4--7-7\6-6/9--4--7-7/9-9/11--|--14-14-14-14--14-14--|
Db|--4--7-7/9-9/11--4--7-7\6-6/7--4--7-7/9-9/11--|--14-14-14-14--14-14--| X1
Ab|--2--5-5/7-7/-9--2--5-5\4-4/7--2--5-5/7-7/-9--|--12-12-12-12--12-12--|
Db|----------------------------------------------|----------------------|
3rd Part:
Eb|----------------------------------------------|------|
Bb|----------------------------------------------|------|
Gb|--4--7-7/9-9/11--4--7-7\6-6/9--4--7-7/9-9/11--|--14--|
Db|--4--7-7/9-9/11--4--7-7\6-6/7--4--7-7/9-9/11--|--14--| X1
Ab|--2--5-5/7-7/-9--2--5-5\7-4/7--2--5-5/7-7/-9--|--12--|
Db|----------------------------------------------|--12--|

INTERLUDE:
Rick Plays:
Eb|--0--0--|
Bb|--0--0--|
Gb|--5--2--|
Db|--5--2--| X3
Ab|--3--0--|
Db|--5--2--|
James Comes In:
Eb|-----------------------------|
Bb|-----------------------------|
Gb|--5--5/7-7/9--99-9/12121212--| 
Db|--x--x-x-x-x--99-9/12121212--| X5
Ab|--3--3/5-5/7--77-7/10101010--|
Db|-----------------------------|

CHORUS:
This is kind of the interlude:
Eb|----------------------------------------------|
Bb|----------------------------------------------|
Gb|----------------------------------------------|
Db|----------------------------------------------| X2
Ab|--2--5-5h7-7/9--2--5-5\4-4/7--2--5-5h7-7/9----|
Db|----------------------------------------------|

Eb|----------------------------------------------|
Bb|----------------------------------------------|
Gb|--4--7-7/9-9/11--4--7-7\6-6/9--4--7-7/9-9/11--|
Db|--4--7-7/9-9/11--4--7-7\6-6/7--4--7-7/9-9/11--| X1
Ab|--2--5-5/7-7/-9--2--5-5\4-4/7--2--5-5/7-7/-9--|
Db|----------------------------------------------|

Eb|----------------------------------------------|-------------|
Bb|----------------------------------------------|-------------|
Gb|--4--7-7/9-9/11--4--7-7\6-6/9--4--7-7/9-9/11--|--11-7--7----|
Db|--4--7-7/9-9/11--4--7-7\6-6/7--4--7-7/9-9/11--|--11-7--7-7--| X1
Ab|--2--5-5/7-7/-9--2--5-5\7-4/7--2--5-5/7-7/-9--|---9-5--5-7--|
Db|----------------------------------------------|----------7--|

FILL 2:

Eb|--------|
Bb|--12v---|
Gb|--------|
Db|--------| X1
Ab|--------|
Db|--------|
                                                                              
BRIDGE:
James plays this under Rick's chorus riff:
Eb|-------------------------------------------------------------------------|
Bb|-------------------------------------------------------------------------|
Gb|--18b--18b-*18b--18b-18b---------------------14br------------------------|
Db|-------------------------16v--16\14-14h16-14-------16v-16v-16v-16p14/16--| X1
Ab|-------------------------------------------------------------------------|
Db|-------------------------------------------------------------------------|
                                                                        

Eb|---------------17b-------------------------------------------------------|
Bb|--------------------18br-19v---------------------------------------------|
Gb|--18b--18brb-------------------------------------------------------------|
Db|------------------------------16v--14p16h14-14/16v--16-18br--16v--16\14--| X1
Ab|-------------------------------------------------------------------------|
Db|-------------------------------------------------------------------------|
                                                                         
OUTRO:

Eb|----------|
Bb|----------|
Gb|--4----0--|
Db|--4--4----| X8
Ab|--2-------|
Db|----------|
James Does Some Crazy Stuff Under This But I Dont Know What He Does, There Is
Also A Fast Fill Riff That I Can't Get Yet! :(

Eb|-----|
Bb|-----|
Gb|--4--|
Db|--4--| X1
Ab|--2--|
Db|-----|

Finger Eleven Is:
Vocals - Scott Anderson.
Lead Guitar - James Black.
Guitar - Rick Jacket.
Bass - Sean Anderson.
Drums - Rich Beddoe.

(I Left Out the Lyrics Because The Tab Is Already Long Enough!)
Suggest correction
Creating personal tab
Creating personal tab
You can edit any tab online and save it as your Personal.

You can edit, replace or remove any tab part or add personal notes – all changes will be seen only by you.

Personal tabs can be accessed anytime from any device, even offline.
Learn more »
comments
print report bad tab
11 comments total. Showing first comments.
+3 reply
Joe@Disturbed16 200 Sep 02, 2003 08:00 PM

K I'm not sure if you guys are getting the timing correct between the slides in the chorus, remember there is a short pause before each slide and the same chord is also played once before the slide, if the timing isn't right then it sounds terrible although it might already to you :(. If you still got that and think it is crappy, then I guess I'll try to make some corrections, just tell me what is wrong with it so I can. Thx.
P.S In the introduction there is also that bass slide before the guitar notes.

+3 reply
Subbliminal 289 Jan 10, 2006 03:37 PM

I think it is an awesome tab. Only some minor mistakes.

Eb|----------|
Bb|----------|
Gb|-------0--|
Db|--4--4----|
Ab|--2-------|
Db|----------|
I think it is just that, without the open string on the chord.
Also in the pre-chorus.
Eb|----------|
Bb|----------|
Gb|----------|
Db|--7-------|
Ab|--7-------|
Db|--7-------| I believe is the correct chord.
And as for the chorus, think this would just be easier to play.
(Plus that one chord is higher then you put)

Eb|----------------------------------------------|------|
Bb|----------------------------------------------|--10--|
Gb|-----7-7/9-9/11-----7-7\6-6/9-----7-7/9-9/11--|--9---|
Db|--7--7-7/9-9/11--7--7-7\6-6/7--9--7-7/9-9/11--|--7---|
Ab|--7--5-5/7-7/-9--7--5-5\4-4/7--9--5-5/7-7/-9--|------|
Db|--7--------------7-------------9--------------|------|


5 Stars though anyways, best tab I have seen.

+3 reply
Subbliminal 289 Jan 10, 2006 03:39 PM

Eb|----------------------------------------------|------|
Bb|----------------------------------------------|--10--|
Gb|-----7-7/9-9/11-----7-7\6-6/9-----7-7/9-9/11--|--9---|
Db|--9--7-7/9-9/11--9--7-7\6-6/7--9--7-7/9-9/11--|--7---|
Ab|--9--5-5/7-7/-9--9--5-5\4-4/7--9--5-5/7-7/-9--|------|
Db|--9--------------9----------7--9--------------|------|

woops

guest
You may want to rate the tab now too:
select rating
Wanna post a correction for this tab? Suggest correction